» » »

Far, Seasick Tabs (ver.1)

Artists:  A B C D E F G H I J K L M N O P Q R S T U V W X Y Z # 

Seasick Tabs (ver.1)

Far Tabs
 Rating:
4/5 (4 votes)
Seasick lessons Tabs too difficult? Try these video lessons and learn fast
1
                Tuning: 	EBGDAE (Standard)


Main Riff
E|-------------------------|
B|-------------------------|
G|--8/7--8-/7--------------|
D|--8/7--8-/7--2--2-2-2----|
A|--6/5--6-/5--2--2-2-2----|
E|-------------0--0-0-0----|

Chorus
E|------------------------|
B|------------------------|
G|------------------------|
D|--2-6--2-4-4-2-8--8-8-8-|
A|--2-6--2-4-4-2-8--8-8-8-|
E|--0-4--0-2-2-0-6--6-6-6-|

Coda after chorus
E|--------------------|---------------------|
B|--------------------|---------------------|
G|--8/7--8-/7-----<4>-|--8/7--8-/7----------|
D|--8/7--8-/7-----<4>-|--8/7--8-/7----------|
A|--6/5--6-/5---------|--6/5--6-/5-----<4>--|
E|-------------0------|-------------0--<4>--|

Post Chorus
E|--------------------------------------------------|
B|--------------------------------------------------|
G|--------------------------------------------------|
D|--4-4-4-4-4-4-6-6-6-6-6-6-7-7-7-7-7-7-7-7-7-7-7-7-|
A|--4-4-4-4-4-4-6-6-6-6-6-6-7-7-7-7-7-7-7-7-7-7-7-7-|
E|--2-2-2-2-2-2-4-4-4-4-4-4-5-5-5-5-5-5-5-5-5-5-5-5-|

Break
E|-----------|-------------------------------------------------------|
B|-----------|-------------------------------------------------------|
G|----4---4--|-------------------------------------------------------|
D|--4---4----|--4-4-4-4-4-4--6-6-6-6-6-6--7-7-7-7-7-7--7-7-7-7-7-7---|
A|-----------|-------------------------------------------------------|
E|-----------|-------------------------------------------------------|
            
Submit corrections

comments powered by Disqus
↑ Back to top | Far Tabs for Seasick. Lyrics for acoustic guitar and electric guitar. 1 Tablatures and chords are parodies/interpretations of the original songs. You may use it for private study, scholarship, research or language learning purposes only