» » »

Far, Punch Drunk Tabs (ver.2)

Artists:  A B C D E F G H I J K L M N O P Q R S T U V W X Y Z # 

Punch Drunk Tabs (ver.2)

Far Tabs
Rating:
0/5 (0 votes)
Punch Drunk lessons Tabs too difficult? Try these video lessons and learn fast
                -------------------------------------------------------------------------------
                             “Punch Drunk” - Far
-------------------------------------------------------------------------------

Tuning: D A D G b e

Intro (let F# ring out before verse)

e|-----------------------------------------------------------------------------|
B|-----------------------------------------------------------------------------|
G|-----------------------------------------------------------------------------|
D|-6-6-6-6-6-6-6-6-6-6-6-6-6-6-6-6-6-6-6-6-6-6-6-6-6-6-6-6-6-6-6-6-6----/4-----|
A|-6-6-6-6-6-6-6-6-6-6-6-6-6-6-6-6-6-6-6-6-6-6-6-6-6-6-6-6-6-6-6-6-6-0-2/4-----|
E|-6-6-6-6-6-6-6-6-6-6-6-6-6-6-6-6-6-6-6-6-6-6-6-6-6-6-6-6-6-6-6-6-6-0-2/4-----|

Verses (very faint guitar)

e|---------------------------------------------------------------------------|
B|---------------------------------------------------------------------------|
G|---------------------------------------------------------------------------|
D|-2/4-4-4-4-4-4-4-4-4-4-4-4-4-4-4-4--2/4-4-4-4-4-4-4-4-4-4-4-4-4-4-4-4------|
A|-2/4-4-4-4-4-4-4-4-4-4-4-4-4-4-4-4--2/4-4-4-4-4-4-4-4-4-4-4-4-4-4-4-4------|
E|-2/4-4-4-4-4-4-4-4-4-4-4-4-4-4-4-4--2/4-4-4-4-4-4-4-4-4-4-4-4-4-4-4-4------|

Pre chorus (both guitars arranged for one)

e|---------------------------------------------------------------------------|
B|----------0-0----------0-0----------0-0------------------------------------|
G|---------3-3----------3-3----------3-3-------------------------------------|
D|-4-4-4-4------4-4-4-4------4-4-4-4------4-4-4-4----------------------------|
A|-4-4-4-4------4-4-4-4------4-4-4-4------4-4-4-4----------------------------|
E|-4-4-4-4------4-4-4-4------4-4-4-4------4-4-4-4-/--------------------------|

Chorus (play twice)

e|---------------------------------------------------------------------------|
B|---------------------------------------------------------------------------|
G|---------------------------------------------------------------------------|
D|-6-6-6-6-6-6-6-6-6-6-6-6-6-6-6-6-6-6-6-6-6-6-6-6-6-6-6-6-------------------|
A|-6-6-6-6-6-6-6-6-6-6-6-6-6-6-6-6-6-6-6-6-6-6-6-6-6-6-6-6-0-2-4-44-2-4-44---|
E|-6-6-6-6-6-6-6-6-6-6-6-6-6-6-6-6-6-6-6-6-6-6-6-6-6-6-6-6-0-2-4-44-2-4-44---|

e|---------------------------------------------------------------------------|
B|---------------------------------------------------------------------------|
G|---------------------------------------------------------------------------|
D|---------------------------------------------------------------------------|
A|-2-4-44-2-44-0--2-4-44-2-4-44-2-4-44-2-44-0--------------------------------|
E|-2-4-44-2-44-0--2-4-44-2-4-44-2-4-44-2-44-0--------------------------------|

Here’s the second guitar part for the end of the second verse
That Shaun plays

e|-----------------------0---------------------------------------------------|
B|---0----0----0----0---------0----0----0------------------------------------|
G|-----3----3----3----3----3----3----3----3----------------------------------|
D|---------------------------------------------------------------------------|
A|---------------------------------------------------------------------------|
E|---------------------------------------------------------------------------|

Outro play it so many times and then...

e|---------------------------------------------------------------------------|
B|---------------------------------------------------------------------------|
G|---------------------------------------------------------------------------|
D|---------------------------------------------------------------------------|
A|-1-0-010-010-010-010-010-010-010-010-010-010-010-010-010-010-010-010-010---|
E|-1-0-010-010-010-010-010-010-010-010-010-010-010-010-010-010-010-010-010---|

...is like this.

             *let note ring out.
e|----------4-------------------------------------------------------------------|
B|------------------------------------------------------------------------------|
G|------------------------------------------------------------------------------|
D|------------------------------------------------------------------------------|
A|-1-0-000----------------------------------------------------------------------|
E|-1-0-000----------------------------------------------------------------------|

That’s pretty much it for the most part. I might be missing like 2% of the song but 
98% of it. Just listen to it and piece it all together because I hate doing the whole song 
thing.
            

comments powered by Disqus
↑ Back to top | Far Tabs for Punch Drunk. Lyrics for acoustic guitar and electric guitar. Tablatures and chords are parodies/interpretations of the original songs. You may use it for private study, scholarship, research or language learning purposes only