» » »

Far, Punch Drunk Tabs (ver.1)

Artists:  A B C D E F G H I J K L M N O P Q R S T U V W X Y Z # 

Punch Drunk Tabs (ver.1)

Far Tabs
 Rating:
4/5 (4 votes)
Punch Drunk lessons Tabs too difficult? Try these video lessons and learn fast
1
                the typical simple rock Far song, it's easy and accurate,have at it.
intro riff
E ------------------------------------
B ------------------------------------
G -888888888888888888888888888888-----
D -666666666666666666666666666666-----
A -666666666666666666666666666666-0-4-
D -666666666666666666666666666666-0-4-

verse riff-(thats right, one simple chord!)
slightly dirt tone, played quietly
E ---------------
B ---------------
G ---------------
D ---------------
A -44444444------
D -44444444------

pre-chorus guitar part
E -------------------------
B --------0--0--------0--0-
G ------3--3--------3--3---
D -------------------------
A -4444--------4444--------
D -4444--------4444--------

chorus-he wails on this chord for awhile then...
E -------------
B -------------
G -88888888----
D -66666666----
A -66666666----
D -66666666----

....second part of chorus
E ----------------------------------
B ----------------------------------
G ----------------------------------
D ----------------------------------
A -1-4-4-4-1-4-4-4-1-4-4-1-4-4-0-0--
D -1-4-4-4-1-4-4-4-1-4-4-1-4-4-0-0--
  pm      pm      pm     

the ending of the sec. verse theres this(below) little note part,
and then does the pre-chorus guitra part thing...
E ------------------0-----------------
B --0---0---0---0-----0--0---0---0----
G ----3---3---3---3--------3---3---3--
D ------------------------------------
A ------------------------------------
D ------------------------------------


this is a small fill after sec. chorus and before breakdown.
E ------------------
B ------------------
G ------------------
D -------------4----
A -1-0--0-0-0--4----
D -1-0--0-0-0--4----


breakdown part-he does this for awhile then goes back to the chorus
E -------------------------
B ---0---0---0---0---0-----
G -3---3---3---3---3-------
D -------------------------
A -------------------------
D -------------------------

does the chorus once more

outro/heavy thrash riff
E -----------------------------
B -----------------------------
G -----------------------------
D -----------------------------
A -0-1-0--0-1-0--0-1-0--0-1-0--
D -0-1-0--0-1-0--0-1-0--0-1-0--

ends on this single note
(high)E --4--
            
Submit corrections

comments powered by Disqus
↑ Back to top | Far Tabs for Punch Drunk. Lyrics for acoustic guitar and electric guitar. 1 Tablatures and chords are parodies/interpretations of the original songs. You may use it for private study, scholarship, research or language learning purposes only