» » »

Far, Nestle Tabs (ver.1)

Artists:  A B C D E F G H I J K L M N O P Q R S T U V W X Y Z # 

Nestle Tabs (ver.1)

Far Tabs
 Rating:
4/5 (4 votes)
Nestle lessons Tabs too difficult? Try these video lessons and learn fast
                Far - Nestle
-standard tuning-

-intro (clean)
e|----------------------------------
B|----------------------------------
G|----------------------------------
D|--7-7-7-7-7-7-7-7-7-7-7-7-7-7-7-7-
A|--7-7-7-7-8-8-8-8-5-5-5-5-5-5-5-5-
E|----------------------------------


verse
e|----------------------------------
B|----------------------------------
G|----------------------------------
D|--7-7-7-7-3-3-3-3-5-5-5-5-5-5-5-5-
A|--7-7-7-7-3-3-3-3-5-5-5-5-5-5-5-5-
E|--7-7-7-7-3-3-3-3-5-5-5-5-5-5-5-5-


riff 1
e|-------------------
B|-------------------
G|-------------------
D|--8-8-8-0--0--0--8-
A|--8-8-8-0--0--0--8-
E|--8-8-8-0--0--0--8-
          pm-----


riff 2
e|----------------------------------
B|----------------------------------
G|----------------------------------
D|--8-8-8-8-8-8-8-8-8-8-8-8-8-8-8-8-
A|--8-8-8-8-8-8-8-8-8-8-8-8-8-8-8-8-
E|--8-8-8-8-8-8-8-8-8-8-8-8-8-8-8-8-


chorus (riff A)
e|---------------------------
B|---------------------------
G|---------------------------
D|---------------------------
A|--3---/5--------3---/5--/8-
E|-----------/8--------------


chorus (riff B)
e|----------------------------------------
B|----------------------------------------
G|----------------------------------------
D|--8-8-8-8-3-3-3-3-10-10-10-10-5-5-5-5-3-
A|--8-8-8-8-3-3-3-3-10-10-10-10-5-5-5-5-3-
E|--8-8-8-8-3-3-3-3-10-10-10-10-5-5-5-5-3-


chorus (guitar 2)
e|---------------
B|---------------
G|---------------
D|--4----------2-
A|--3----------3-
E|---------------


bridge
e|----------------------------------
B|----------------------------------
G|----------------------------------
D|--5-5-5-5-12-12-12-12-10-10-10-10-
A|--5-5-5-5-12-12-12-12-10-10-10-10-
E|--5-5-5-5-12-12-12-12-10-10-10-10-


outro
e|----------------------------------
B|----------------------------------
G|----------------------------------
D|--8-8-8-8-8-8-8-8-3-3-3-3-3-3-3-3-
A|--8-8-8-8-8-8-8-8-3-3-3-3-3-3-3-3-
E|--8-8-8-8-8-8-8-8-3-3-3-3-3-3-3-3-


outro (guitar 2)
e|--------------------------------------
B|--------------------------------------
G|--10-10-10-10-9-9-9-9-7-7-7-7-5-5-5-5-
D|--------------------------------------
A|--------------------------------------
E|--------------------------------------
            
Submit corrections

comments powered by Disqus
↑ Back to top | Far Tabs for Nestle. Lyrics for acoustic guitar and electric guitar. Tablatures and chords are parodies/interpretations of the original songs. You may use it for private study, scholarship, research or language learning purposes only