» » »

Far, Man Overboard Tabs (ver.1)

Artists:  A B C D E F G H I J K L M N O P Q R S T U V W X Y Z # 

Man Overboard Tabs (ver.1)

Far Tabs
 Rating:
4.3/5 (6 votes)
Man Overboard lessons Tabs too difficult? Try these video lessons and learn fast
                -------------------------------------------------------------------------------
                         “Man Overboard” - Far
-------------------------------------------------------------------------------

Tuning: D A D G b e

This is “Man Overboard” from the album “Water and Solutions”

Here’s the intro/verse riff (Shaun) 

e|-101010-101010-101010-101010-101010-101010-101010-101010-------------------|
B|-8-8-8--8-8-8--8-8-8--8-8-8--7-7-7--7-7-7--7-7-7--7-7-7--------------------|
G|-7-7-7--7-7-7--7-7-7--7-7-7--7-7-7--7-7-7--7-7-7--7-7-7--------------------|
D|---------------------------------------------------------------------------|
A|---------------------------------------------------------------------------|
E|---------------------------------------------------------------------------|

 Here’s the pre-verse/chorus              three times... then let ring. 

e|---------------------------------------------------------------------------|
B|---------------------------------------------------------------------------|
G|-5-5-5-5-5-5-5-5/7-7-7-7-7-7-7-7----------------------------0--------------|
D|-3-3-3-3-3-3-3-3/5-5-5-5-5-5-5-5----------------------------0--------------|
A|-3-3-3-3-3-3-3-3/5-5-5-5-5-5-5-5----------------------------0--------------|
E|-3-3-3-3-3-3-3-3/5-5-5-5-5-5-5-5-0/12-12-12-12-12-----------0--------------|

 Here’s the verse chords Jonah plays (part A)

e|---------------------------------------------------------------------------|
B|-8-8-8-8-8-8-8-8-8-8-8-8-7-7-7-7-7-7-7-7-7-7-7-7---------------------------|
G|-7-7-7-7-7-7-7-7-7-7-7-7-7-7-7-7-7-7-7-7-7-7-7-7---------------------------|
D|-5-5-5-5-5-5-5-5-5-5-5-5-0-0-0-0-0-0-0-0-0-0-0-0---------------------------|
A|-5-5-5-5-5-5-5-5-5-5-5-5-0-0-0-0-0-0-0-0-0-0-0-0---------------------------|
E|-5-5-5-5-5-5-5-5-5-5-5-5-0-0-0-0-0-0-0-0-0-0-0-0---------------------------|

 Here’s part b

e|---------------------------------------------------------------------------|
B|---------------------------------------------------------------------------|
G|-------------5-5-5-5-5-5-4-4-4-4-4-4---------------------------------------|
D|-5-5-5-5-5-5-5-5-5-5-5-5-4-4-4-4-4-4-4-4-4-4-4-4-5-5-5-5-5-5-5-5-5-5-5-5---|
A|-5-5-5-5-5-5-3-3-3-3-3-3-2-2-2-2-2-2-4-4-4-4-4-4-5-5-5-5-5-5-5-5-5-5-5-5---|
E|-5-5-5-5-5-5-------------------------4-4-4-4-4-4-5-5-5-5-5-5-5-5-5-5-5-5---|

 Pre chorus let open D chord ring out while Jonah does his crooning...

e|---------------------------------------------------------------------------|
B|---------------------------------------------------------------------------|
G|-7-------------------------------------------------------------------------|
D|-0-------------------------------------------------------------------------|
A|-0-------------------------------------------------------------------------|
E|-0-------------------------------------------------------------------------|



 Here’s the solo-ish thingy part 

e|---------------------------------------------------------------------------|
B|---------------------------------------------------------------------------|
G|-12-/----5-5-5-5-5-5-4-4-4-4-4-4--11-11-11-11-11-11-11---------------------|
D|-x-------x-x-x-x-x-x-x-x-x-x-x-x-------------------------------------------|
A|-10-/----3-3-3-3-3-3-2-2-2-2-2-2--9--9—-9--9—-9--9--9----------------------|
E|------0--------------------------------------------------------------------|

 I think that’s pretty much it... this was my first tab so tell me how I did.
 Also give me tips, advice, etcetera for future tabs. Thanks!

 So here’s the song flow... 
 
 Intro riff 8x
 Pre-verse chorus 3x
 Verse chords part A 2x
 Verse chords part B once
 Pre chorus open D chord w/ intro riff
 Chorus 3x
 Verse chords part A w/ intro riff 4x
 Verse chords part B 2x
 Pre chorus open D chord w/ intro riff
 Chorus 3x
 Verse chords part A 2x
 Solo-ish thingy part 2x
 Chorus (not sure how many times)
 Outro is just the second verse played softer and no distortion
 
 



| /  slide up
| \  slide down
| h  hammer-on
| p  pull-off
| ~  vibrato
| +  harmonic
| x  Mute note
===============================================================================
            
Submit corrections

comments powered by Disqus
↑ Back to top | Far Tabs for Man Overboard. Lyrics for acoustic guitar and electric guitar. Tablatures and chords are parodies/interpretations of the original songs. You may use it for private study, scholarship, research or language learning purposes only