» » »

Love, American Style Tabs (ver.1)

Artists:  A B C D E F G H I J K L M N O P Q R S T U V W X Y Z # 

Love, American Style Tabs (ver.1)

Far
Rating:
0/5 (0 votes)

Hard to play? Try these video lessons and learn fast.
                -------------------------------------------------------------------------------
“Love, American Style” - Far
-------------------------------------------------------------------------------

Tuning: open d (D A D G b e)

Intro/pre-chorus
e|------------------|
B|------------------|
G|-7-7-777-6-6-666--|
D|-5-5-555-4-4-444--|
A|-5-5-555-4-4-444--|
E|-5-5-555-4-4-444--|

Main riff
e|--------------|
B|--------------|
G|--7-/-9-------| x8
D|--------------|
A|--5-/-7-------|
E|--------0-0---|

Verse chord
e|-------------------------------------------------------------------|
B|-------------------------------------------------------------------|
G|-7-7-7-7-7-7-7-7-7-7-7-7-7-7-7-7-7-7-7-7-7-7-7-7-7-7-7-7-7-7-7-7---|
D|-x-x-x-x-x-x-x-x-x-x-x-x-x-x-x-x-x-x-x-x-x-x-x-x-x-x-x-x-x-x-x-x---|
A|-5-5-5-5-5-5-5-5-5-5-5-5-5-5-5-5-5-5-5-5-5-5-5-5-5-5-5-5-5-5-5-5---|
E|-------------------------------------------------------------------|

Chorus (the parentheses means to bend notes) 
e|----------------------------|
B|----------------------------|
G|---8)-----8-8-8-8-8-8-8-8---|
D|----------6-6-6-6-6-6-6-6---| x4
A|-0-6)-0---6-6-6-6-6-6-6-6---|
E|-0----0---6-6-6-6-6-6-6-6---|

Post chorus (mute the x’s on the sixth fret)
e|----------------------------------------------------|
B|----------------------------------------------------| 
G|----------------------------------------6-6-6-6-6---| x4
D|-5-0-5-0-5-0--5-x-5-0-5-0--5-x-5-0-5-0--4-4-4-4-4---|
A|-5-0-5-0-5-0--5-x-5-0-5-0--5-x-5-0-5-0--4-4-4-4-4---|
E|-5-0-5-0-5-0--5-x-5-0-5-0--5-x-5-0-5-0--4-4-4-4-4---|

I’ll post the outro later...

 (Song flow)

Intro
Main riff x8
Verse chord
Main riff x4
Verse chord
Main riff x4
Verse chord
Main riff x8
Pre chorus (aka intro)
Chorus x4

| /  slide up
| \  slide down
| h  hammer-on
| p  pull-off
| ~  vibrato
| +  harmonic
| x  Mute note
===============================================================================
            
Hard to play? Try these video lessons and learn fast. | Correct




comments powered by Disqus
↑ Back to top | Tablatures and chords are parodies/interpretations of the original songs. You may use it for private study, scholarship, research or language learning purposes only