» » »

Far, Job's Eyes Tabs (ver.1)

Artists:  A B C D E F G H I J K L M N O P Q R S T U V W X Y Z # 

Job's Eyes Tabs (ver.1)

Far Tabs
Rating:
0/5 (0 votes)
Job's Eyes lessons Tabs too difficult? Try these video lessons and learn fast
                far-jobs eyes
-drop D tuning-

intro:
|-<12>-------------------------|
|-----------<12>---------------|
|------<12>--------------------|
|---------------------<7>------|
|------------------------------|
|------------------------------|

main riff
|------------------|
|------------------|
|------------------|
|------3--3--------|
|-0----2--2---0----|
|-0----2--2---0----|

               sometimes add this
|------------|---------------|
|------------|---------------|
|------------|------0--------|
|------------|----3----------|
|-----2--0---|--2------------|
|--0---------|---------------|
tremelo pick 
this part at 
the end of 
the song

|--------------------|
|--------------------|
|--------------------|
|--------------------|
|-2-2-2-2--3-3-3-3---|
|-2-2-2-2--3-3-3-3---|

                 
|-----------|-------------------------------|
|-----------|-------------------------------|
|----4--2---|--55555---77777---9999999999---|
|----x--x---|--xxxxx---xxxxx---xxxxxxxxxx---|
|----2--0---|--33333---55555---7777777777---|
|-0---------|-------------------------------|
                and it falls on jobs eyes...


|------------|
|------------|
|----<5>-----|
|--------4^--|
|------------|
|------------|


|-0000-0000-0000-0000---0-----|
|-0000-0000-0000-0000---0-----|
|-9999-9999-9999-9999---9-----|
|-9999-9999-9999-9999---9-----|
|-7777-7777-7777-7777---6-----|
|-----------------------------|
  ...ruins the work you did
            
Submit corrections

comments powered by Disqus
↑ Back to top | Far Tabs for Job's Eyes. Lyrics for acoustic guitar and electric guitar. Tablatures and chords are parodies/interpretations of the original songs. You may use it for private study, scholarship, research or language learning purposes only