» » »

Far, I Like It Tabs (ver.1)

Artists:  A B C D E F G H I J K L M N O P Q R S T U V W X Y Z # 

I Like It Tabs (ver.1)

Far Tabs
 Rating:
4/5 (4 votes)
I Like It lessons Tabs too difficult? Try these video lessons and learn fast
                this song rocks ass, so if anyone reads these, 
rock it for yourself.

Intro/verse riff-clean
E ----------------------------------
B ----------------------------------
G ----------------------------------
D ----------------------------------
A -6-6-6-6-6-7-7-7-7----------------
E -0-4-4-4-4-5-5-5-5-0-0-0-0-0-0-0--

"i was really happy...."  this is also the chorus riff
E ---------------------------------
B ---------------------------------
G -9-------------------------------
D -x-------------------------------
A -7------5-5-5-5-6-6-6-6-9-9-9-9--
E -0----0-3-3-3-3-4-4-4-4-7-7-7-7--

Heavy riff
E ----------------------------------
B ----------------------------------
G ----------------------------------
D ---5-5-5-5-5-5-5---5-5-5-5-5-5-5--
A ---5-5-5-5-5-5-5---5-5-5-5-5-5-5--
E -0-3-3-3-3-3-3-3-0-3-3-3-3-3-3-3--

verse riff-distorted this time

heavy part("i should feel lucky")

chorus riff("i like it...")play it distorted this time

then this part-play it twice
E ---------------------------0------------------
B ---------------------------0------------------
G ----------------------------------------------
D ----------------------------------------------
A -666667777---------------------666667777------
E -044445555012\(slide down)-----04444555500-0--

theres a keyboard part or something at this^part that can be played on guitar...
E -15----13-----
B ----15----15--

ends on this before breakdown
G ----
D -9--
A -7--
E -0--

breakdown-mostly just the bass line, but the high b and e are picked
E -0000........--
B -0000........--

bridge-play 3x
E ---------------------------------------------
B ---------------------------------------------
G ---------------------------------------------
D ---------------------------------------------
A -6---6---6-9--6---6---6-9--2222222222222222--
E -4p0-4p004/7-04p0-4p004/7-00000000000000000--

play chorus

song ends on "the heavy riff"-played12x, last four is just guitar.
            
Submit corrections

comments powered by Disqus
↑ Back to top | Far Tabs for I Like It. Lyrics for acoustic guitar and electric guitar. Tablatures and chords are parodies/interpretations of the original songs. You may use it for private study, scholarship, research or language learning purposes only