» » »

Deafening Tabs (ver.1)

Artists:  A B C D E F G H I J K L M N O P Q R S T U V W X Y Z # 

Deafening Tabs (ver.1)

Far
Rating:
4/5 (2 votes)

Hard to play? Try these video lessons and learn fast.
                -------------------------------------------------------------------------------
-------------------------------------------------------------------------------


Main Riff (repeat 2X)

eb---------------------------------------------------------|
Bb---------------------------------------------------------|
Gb---------------------------------------------------------|
Db--0-12-10-0-12-10-0-12-0-12-10-0-12-10-0-12--------------|
Ab--0-12-10-0-12-10-0-12-0-12-10-0-12-10-0-12--------------|
Db--0-12-10-0-12-10-0-12-0-12-10-0-12-10-0-12--------------|

Verse

Bass Riff:

Gb---------------------------------------------------------|
Db---------------------------------------------------------|
Ab---------------------------------------------------------|
Db--0-12-10-0-12-10-0-12-0-12-10-0-12-10-0-12--------------|

Pre Chorus:

   "If Silence is Golden..."

eb----------------------------------------------------------------------|
Bb----------------------------------------------------------------------|
Gb----7-7-7-7-7-7-7--5-5-5-5-5-5-5--10-10-10-10-10-10-10--5-5-5-5-5-5-5-|
Db----------------------------------------------------------------------|
Ab----------------------------------------------------------------------|
Db----------------------------------------------------------------------|

Chorus Chords (listen to song for strumming pattern) (Play 2X):

  "IT'S DEAFENING!!!"                  "IT'S DEAFENING!!!"       "It's deafening...."
eb-----------------------------------------------------------------------------------------------|
Bb-----------------------------------------------------------------------------------------------|
Gb---------------------5-5-5-5-5-5-5-5-5-5-5-5-5-5-5-5-5--5-5-5-5-5-5-5--10-10-10-10-10-10-10----|
Db---------------------3-3-3-3-3-3-3-3-3-3-3-3-3-3-3-3-3--0-0-0-0-0-0-0---8-8-8-8-8-8-8-8-8-8----|
Ab---------------------3-3-3-3-3-3-3-3-3-3-3-3-3-3-3-3-3--0-0-0-0-0-0-0---8-8-8-8-8-8-8-8-8-8----|
Db---------------------3-3-3-3-3-3-3-3-3-3-3-3-3-3-3-3-3--0-0-0-0-0-0-0---8-8-8-8-8-8-8-8-8-8----|

Play Main Riff


Bridge

eb---------------------------------------------------------------|
Bb---------------------------------------------------------------|
Gb---------------------------------------------------------------|
Db---------------------------------------------------------------|
Ab---------------------------------------------------------------|
Db-0-0-0-0-0-0-0-0-0-0-0-0-0-0-0-0-0-0-0-0-0-0-0-0-0-0-0-0-0-0-0-|


Play Main Riff

This is my first tab!
            
Hard to play? Try these video lessons and learn fast. | Correct




comments powered by Disqus
↑ Back to top | Tablatures and chords are parodies/interpretations of the original songs. You may use it for private study, scholarship, research or language learning purposes only