» » »

Far, Cut-Out Tabs (ver.1)

Artists:  A B C D E F G H I J K L M N O P Q R S T U V W X Y Z # 

Cut-Out Tabs (ver.1)

Far Tabs
 Rating:
4/5 (4 votes)
Cut-Out lessons Tabs too difficult? Try these video lessons and learn fast
1
                -------------------------------------------------------------------------------
                             “Cut-Out” - Far
-------------------------------------------------------------------------------

Tuning: standard


Verse w/ palm muting... play it lots of times

   ******  ******  ****  ******
e|---------------------------------------------------------------------------|
B|---------------------------------------------------------------------------|
G|---------------------------------------------------------------------------|
D|---------------------------------------------------------------------------|
A|-5/6-66666666666666666666666666--------------------------------------------|
E|-3/4-44444444444444444444444444--------------------------------------------|

Pre chorus. the # signifies that you use harmonics on those frets
              #  
e|---------------------------------------------------------------------------|
B|---------------------------------------------------------------------------|
G|---------------------------------------------------------------------------|
D|---------------------------------------------------------------------------|
A|-6-5—-6-5—--6---6-5---3/55-------------------------------------------------|
E|-4-30-4-30--4---4-3-0-1/33-------------------------------------------------|

chorus
         cut out!                You’re a doll
e|---------------------------------------------------------------------------|
B|---------------------------------------------------------------------------|
G|---------------------------------------------------------------------------|
D|--88-88-88-88-88-----------------------------------------------------------|
A|--77-77-77-77-77----4-5---5-44---2—-1-1------------------------------------|
E|-0--0--0--0--0--0-0-2-3-0-3-22-0—-33---2222--------------------------------|

breakdown
basically repeat this many times...
e|---------------------------------------------------------------------------|
B|---------------------------------------------------------------------------|
G|---------------------------------------------------------------------------|
D|---------------------------------------------------------------------------|
A|-4-3-----------------------------------------------------------------------|
E|-2-1-00--------------------------------------------------------------------|

Bridge

   4 measures of each power chord palm muted
e|---------------------------------------------------------------------------|
B|---------------------------------------------------------------------------|
G|---------------------------------------------------------------------------|
D|---------------------------------------------------------------------------|
A|-6---------------4---------------------------------------------------------|
E|-4---------------2---------------------------------------------------------|


Here is the outro... play it infinity times
e|---------------------------------------------------------------------------|
B|---------------------------------------------------------------------------|
G|---------------------------------------------------------------------------|
D|---------------------------------------------------------------------------|
A|---4-5---5-44-2----1-------------------------------------------------------|
E|-0-2-3-0-3-22--333--2222--------------------------------------------------

I did my best at it. enjoy

| /  slide up
| \  slide down
| h  hammer-on
| p  pull-off
| ~  vibrato
| +  harmonic
| x  Mute note
===============================================================================
            
Submit corrections

comments powered by Disqus
↑ Back to top | Far Tabs for Cut-Out. Lyrics for acoustic guitar and electric guitar. 1 Tablatures and chords are parodies/interpretations of the original songs. You may use it for private study, scholarship, research or language learning purposes only