>
 >
Im A Pilot

Im A Pilot Bass Tabs

Fanfarlo - Im A Pilot chords, tabs, tablatures, lyrics

Guitar lessons | Add/correct | Request | Top 50 tabs Artists:  A B C D E F G H I J K L M N O P Q R S T U V W X Y Z 0-9

Im A Pilot Bass Tabs – Fanfarlo

CD, Sheet music, Poster

Do you like Im A Pilot? Share with your friends now
Bass TabsChordsUkulele
This is only my second tab but I'm 99.9% sure it's totally correct.  It's pretty easy
and to help help any beginners this song is in a 3/4 time signature, so if you like to
count it off it's not 1 2 3 4, it's 1 2 3.  If you have any questions feel free to email 

Standard tuning: EADG

(intro/verse
   0:07
G|-------------------------|
D|-------------------------|
A|-7-7-7-7-7-9-----------6-|  x7
E|-------------7-7-7-7-7---|

0:32
G|-------------------------|
D|-------------9-9-9-7-7-7-|
A|-7-7-7-7-9-7-------------|
E|-------------------------|

0:35
G|-------------------------|
D|-------------------------|
A|-7-7-7-7-7-9-----------6-|  x2
E|-------------7-7-7-7-7---|

0:43
G|-------------------------|
D|-------------------------|
A|-7-7-7-7-7-9-------7-9-6-|
E|-------------7-7-7-------|

(Break)

0:53
G|-------------------------|
D|-------------------------|
A|-----------------------6-|
E|-5-5-5-5-5-5-5-5-5-5-7---|

(verse)
0:56
G|--------------------------|
D|--------------------------|
A|--7-7-7-7-7-9-----------6-|  x5
E|--------------7-7-7-7-7---|

1:15
G|-------------------------|
D|-------------9-9-9-7-7-7-|
A|-7-7-7-7-9-7-------------|
E|-------------------------|

1:19
G|-------------------------|
D|-------------------------|
A|-7-7-7-7-7-9-----------6-|  x2
E|-------------7-7-7-7-7---|

1:26
G|-------------------------|
D|-------------------------|
A|-7-7-7-7-7-9-------7-9-6-|
E|-------------7-7-7-------|

1:29
G|-------------------------|
D|-------------------------|
A|-4-4-4-4-4---------------|  x2
E|-----------4-2-2-2-2-2-2-|

1:36
G|-------------------------|
D|-------------------------|
A|-----------------------6-|
E|-5-5-5-5-5-5-5-5-5-5-7---|

1:40
G|-------------------------|
D|-------------------------|
A|-7-7-7-7-7-7-----------6-|
E|-------------5-5-5-5-7---|

1:44
G|-------------------------|
D|-------------------------|
A|-7-7-7-7-7-7-------------|
E|-------------5-5-5-5-5-5-|

1:47
G|-------------------------|
D|-------------------------|
A|-4-4-4-4-4-4-6-6-6-6-6-6-|
E|-------------------------|

1:51
G|-------------------------|-------------------------|
D|-----------6-7-7-7-7-6---|-----------6-7-7-7-7-6---|
A|-7-7-7-7-9-------------9-|-7-7-7-7-9-------------9-|
E|-------------------------|-------------------------|

2:02
G|--------------------------|
D|--------------------------|
A|--7-7-7-7-7-9-----------6-|   x5
E|--------------7-7-7-7-7---|

2:20
G|-------------------------|
D|-------------9-9-9-7-7-7-|
A|-7-7-7-7-9-7-------------|
E|-------------------------|

2:23
G|-------------------------|
D|-------------------------|
A|-7-7-7-7-7-9-----------6-|  x2
E|-------------7-7-7-7-7---|

2:30
G|-------------------------|
D|-------------------------|
A|-7-7-7-7-7-9-------7-9-6-|
E|-------------7-7-7-------|

2:34
G|-------------------------|
D|-------------------------|
A|-4-4-4-4-4---------------|  x2
E|-----------4-2-2-2-2-2-2-|

2:41
G|-------------------------|
D|-------------------------|
A|-----------------------6-|
E|-5-5-5-5-5-5-5-5-5-5-7---|

2:45
G|-------------------------|
D|-------------------------|
A|-7-7-7-7-7-7-----------6-|
E|-------------5-5-5-5-7---|

2:49
G|-------------------------|
D|-------------------------|
A|-7-7-7-7-7-7-------------|
E|-------------5-5-5-5-5-5-|

2:52
G|-------------------------|
D|-------------------------|
A|-4-4-4-4-4-4-6-6-6-6-6-6-|
E|-------------------------|

2:56
G|-------------------------|---------------------------|
D|-----------6-7-7-7-7-6---|-----------6-7-7-7-7-6-----|
A|-7-7-7-7-9-------------9-|-7-7-7-7-9-------------9---|
E|-------------------------|-------------------------8-|

3:06
G|-------------------------|
D|-------------------------|
A|-7-7-7-7-7-9-----------6-|  x2
E|-------------7-7-7-7-7---|

3:13
G|-------------------------|
D|-------------------------|
A|-4-4-4-4-4---------------|  x2
E|-----------4-2-2-2-2-2-2-|

3:20
G|-------------------------|
D|-------------------------|
A|-------------------------|
E|-5-5-5-5-5-5-5-5-5-5-5-5-|

3:25
G|-------------------------|-------------------------|
D|-------------------------|-------------------------|
A|-4-4-4-4-4-4-------------|-----------6-7-7-7-7-7-7-|   x2
E|-------------4-4-4-4-4-4-|-5-5-5-5-7---------------|

3:38
G|-----------------------------------------------------------|
D|-----------------------------------------------------------|
A|-4~~------7-7-7-7-7-7---------------7-7-7-7-7-7------------|
E|-----5~~--------------5-5-5-5-5-5-5------------5-5-5-5-5-5-|

3:49
G|-------------------------|
D|-------------------------|
A|-4-4-4-4-4-4-6-6-6-6-6-6-|
E|-------------------------|

3:53
G|-------------------------|-------------------------|
D|-----------6-7-7-7-7-6---|-----------6-7-7-7-7-6---|
A|-7-7-7-7-9-------------9-|-7-7-7-7-9-------------9-|
E|-------------------------|-------------------------|

G|-------------------------|---------------------------|
D|-----------6-7-7-7-7-6---|-----------6-7-7-7-7-6-----|
A|-7-7-7-7-9-------------9-|-7-7-7-7-9-------------9---|
E|-------------------------|-------------------------8-|

(outro)
4:07
G|-------------------------|-------------------------|
D|-------------------------|-------------------------|
A|-7-7-7-7-9-7-----------6-|-7-7-7-7-9-7-----------6-|
E|-------------7-7-7-7-7---|-------------7-7-7-7-7---|

G|-------------------------|--------|
D|-------------------------|--------|
A|-7-7-7-7-9-7-----------6-|-7~~~~~-|
E|-------------7-7-7-7-7---|--------|





Comments


Popular Fanfarlo tabs & chords
The Walls Are Coming Down Bass Tabs
Drowning Men Chords
Harold T Wilkins Chords
Harold T Wilkins 1 Chords
The Walls Are Coming Down Chords
Comets Tabs
Comets 1 Tabs
Drowning Men Ukulele
Harold T Wilkins Ukulele
Luna Ukulele


Song lyrics



↑ Back to top | Tablatures and chords are parodies/interpretations of the original songs. You may use it for private study, scholarship, research or language learning purposes only
© 2014 AZChords.com Contact us | Privacy policy | DMCA | Add/correct tabs | Request tabs | Top 50 tabs