» » »

Finish Line Tabs (ver.1)

Artists:  A B C D E F G H I J K L M N O P Q R S T U V W X Y Z # 

Finish Line Tabs (ver.1)

Fanfarlo
Rating:
0/5 (0 votes)

Hard to play? Try these video lessons and learn fast.
                
Tuning: Standard
*some chords are open and some are barred.


Intro/Verse1
E|-------------------|-------------------|---------------------------|-------------------|
B|-------------------|-------------------|---------------------------|-------------------|
G|-------------------|-------------------|---------------------------|-------------------|
D|-------------------|-------------------|---------------------------|-------------------|
A|----6---6---6---6--|----7---7---7---7--|-----11----11----11----11--|----2---2---4---4--|
E|--7---7---7---7----|--9---9---9---9----|--12----12----12----12-----|--4---4---6---6----|


Pre-Verse2
E|-------------------|-------------------|-------------------|
B|-------------------|-------------------|-------------------|
G|-------------------|-------------------|-------------------|
D|-------------------|-------------------|-------------------|
A|----6---6---6---6--|----2---2---2---2--|--2-2-2-2-2-2-2-2--|
E|--7---7---7---7----|--4---4---4---4----|--3-3-3-3-3-3-3-3--|


Verse2
D G D G D Bm A

D                G
I stopped racing years ago
D                    Bm          A
I stopped listening – I stopped speaking
D                      G
The world has kept you on your toes
D            Bm              A
Speak to me with your hands, with your hands
D                   G
I’ve got my friends safe in a cocoon
D                            Bm           A
But I’ve read enough to know it will end, it will end
D           G
Kerosene is my last line of defense
D       Bm      A          D/F#
Against all the rules I’ve bent


Verse3
G D/F# G D/F# G D/F# G

G                      D
I’m in the dark there, I’m in the basement
G                         D            Em7  D/F#  G
That’s where I keep them, that’s where they’re buzzing
G             D              G           D    Em7  D/F#  G
Last year was a good year, I beat myself to a bloody mess
G                      D
But blue is the colour of the days I’m hoping for
G                     D   Em7  D/F#  G
What have you done to the mind you had
G              D
Out there somewhere is the finish line
G              D
Out there somewhere is the finish line


Verse4
G D G D G D x3

D         G
I came to on a bed 
D                Bm    A
I must have been taken by surprise
D           G
I must have lost my head!
D            Bm    A           D
Speak to me, if you can      
            
Hard to play? Try these video lessons and learn fast. | Correct




comments powered by Disqus
↑ Back to top | Tablatures and chords are parodies/interpretations of the original songs. You may use it for private study, scholarship, research or language learning purposes only