» » »

Oliver Twist Tabs (ver.1)

Artists:  A B C D E F G H I J K L M N O P Q R S T U V W X Y Z # 

Oliver Twist Tabs (ver.1)

Fandangle
Rating:
0/5 (0 votes)

Hard to play? Try these video lessons and learn fast.
                Tuning: Normal

Intro
e|-444x4x4x4x4x4x2--44444--444x4x4x4x4x4x2--55567--------------------------|
B|-555x5x5x5x5x5x4--55545--555x5x5x5x5x5x4--55567--------------------------|
G|-444x4x4x4x4x4x4--44444--444x4x4x4x4x4x4--66678--------------------------|
D|-------------------------------------------------------------------------|
A|-------------------------------------------------------------------------|
E|-------------------------------------------------------------------------|
note tht I did actually mean to tab 4 instead of 5 in the second load of chords

verse
e|-444x4x4-444x4x4-----------------555x5x5x4x4x5x4--5556777x7x7------------|
B|-555x5x5-555x5x5--555x5x5x5x7x5--555x5x5x5x5x5x5--5556777x7x7------------|
G|-444x4x4-444x4x4--666x6x6x6x6x6--666x6x6x4x4x4x4--6667888x8x8------------|
D|------------------777x7x7x7x7x7------------------------------------------|
A|-------------------------------------------------------------------------|
E|-------------------------------------------------------------------------|

chorus
e|-------------------------------------------------------------------------|
B|-------------------------------------------------------------------------|
G|-------4-6---9-4---------------------------------------------------------|
D|-2-7-2-4-6-7-9-4---------------------------------------------------------|
A|-2-7-2-2-4-7-7-2---------------------------------------------------------|
E|-0-5-0-----5-------------------------------------------------------------|

| /  slide up
| \  slide down
| h  hammer-on
| p  pull-off
| ~  vibrato
| +  harmonic
| x  Mute note
===========================================================================
            
Hard to play? Try these video lessons and learn fast. | Correct




comments powered by Disqus
↑ Back to top | Tablatures and chords are parodies/interpretations of the original songs. You may use it for private study, scholarship, research or language learning purposes only