» » »

Fandangle, Just Like You Tabs (ver.1)

Artists:  A B C D E F G H I J K L M N O P Q R S T U V W X Y Z # 

Just Like You Tabs (ver.1)

Fandangle Tabs
Rating:
4/5 (1 vote)
Just Like You lessons Tabs too difficult? Try these video lessons and learn fast
                Tuning: Normal

Intro
e|-xx7xx2xx3xx2xx7xx2xx232------77-----------------------------------------|
B|-xx8xx3xx4xx3xx8xx3xx343-(x2)-88-(x3)------------------------------------|
G|-xx7xx2xx3xx2xx7xx3xx232------77-----------------------------------------|
D|-------------------------------------------------------------------------|
A|-------------------------------------------------------------------------|
E|-------------------------------------------------------------------------|

Verse
e|-777x7x7x555x5x5x555x5x5x333x3x3-----------------------------------------|
B|-888x8x8x777x7x7x666x6x6x555x5x5-----------------------------------------|
G|-777x7x7x777x7x7x555x5x5x555x5x5-----------------------------------------|
D|-------------------------------------------------------------------------|
A|-------------------------------------------------------------------------|
E|-------------------------------------------------------------------------|

Chorus
e|-------------------------------------------------------------------------|
B|-------------------------------------------------------------------------|
G|---7---5-4---------------------------------------------------------------|
D|-5-7-7-5-4---------------------------------------------------------------|
A|-5-5-7-3-2---------------------------------------------------------------|
E|-3---5-------------------------------------------------------------------|
work out the strumming pattern by urself

Bridge
e|-------------------------------------------------------------------------|
B|-------------------------------------------------------------------------|
G|---xx7-------------------12-xx7-xx10-------------------------------------|
D|-5-xx7-xx7-xx10-9-7------12-xx7-xx10-xx10-(x4)---------------------------|
A|-5-xx5-xx7-xx10-9-7-(x4)-10-xx5-xx8--xx10--------------------------------|
E|-3-----xx5-xx8--7-5------------------xx8---------------------------------|
the bit after the bridge is the same chords as verse with a slightly diferent strumming rhythm
            

comments powered by Disqus
↑ Back to top | Fandangle Tabs for Just Like You. Lyrics for acoustic guitar and electric guitar. Tablatures and chords are parodies/interpretations of the original songs. You may use it for private study, scholarship, research or language learning purposes only