» » »

Hello Goodbye Tabs (ver.1)

Artists:  A B C D E F G H I J K L M N O P Q R S T U V W X Y Z # 

Hello Goodbye Tabs (ver.1)

Fandangle
Rating:
5/5 (1 vote)

Hard to play? Try these video lessons and learn fast.
                Tuning: Normal

Intro x2
e|-x2x2x0x0x3x3------------------------------------------------------------|
B|-x3x3x2x2x3x3------------------------------------------------------------|
G|-x2x2x2x2x4x4------------------------------------------------------------|
D|-------------------------------------------------------------------------|
A|-------------------------------------------------------------------------|
E|-------------------------------------------------------------------------|

Verse
e|-x2x2x0x0x3x3x3x3--------------------------------------------------------|
B|-x3x3x2x2x3x3x3x3--------------------------------------------------------|
G|-x2x2x2x2x4x4x4x4--------------------------------------------------------|
D|-------------------------------------------------------------------------|
A|-------------------------------------------------------------------------|
E|-------------------------------------------------------------------------|

Pre Chorus
e|-2-0-3-3------222x2x2-000x0x0-333x3x3-333x3x3----------------------------|
B|-3-2-5-3-(x1)-333x3x3-222x2x2-555x5x5-333x3x3-(x1)-----------------------|
G|-2-2-5-4------222x2x2-222x2x2-555x5x5-444x4x4----------------------------|
D|-------------------------------------------------------------------------|
A|-------------------------------------------------------------------------|
E|-------------------------------------------------------------------------|

Chorus
e|-222x2x2-000x0x0-333x3x3-333x3x3-----------------------------------------|
B|-333x3x3-222x2x2-555x5x5-333x3x3-(x4)------------------------------------|
G|-222x2x2-222x2x2-555x5x5-444x4x4-----------------------------------------|
D|-------------------------------------------------------------------------|
A|-------------------------------------------------------------------------|
E|-------------------------------------------------------------------------|

For the trumpet solo bit just same chords as verse

Bridge
e|-------------------------------------------------------------------------|
B|-------------------------------------------------------------------------|
G|-77777-------55555---------77-55-----------------------------------------|
D|-77777-77777-55555-5-(x1)--77-55-555-77---(x8)---------------------------|
A|-55555-77777-33333-5-------55-33-555-77----------------------------------|
E|-------55555-------3-------------333-55----------------------------------|

Final Chorus
e|-------------------------------------------------------------------------|
B|-------------------------------------------------------------------------|
G|-7---5-------------------------------------------------------------------|
D|-7-7-5-5-----------------------------------------------------------------|
A|-5-7-3-5-----------------------------------------------------------------|
E|---5---3-----------------------------------------------------------------|
just these chords played over figure out the strumming pattern urself
            
Hard to play? Try these video lessons and learn fast. | Correct




comments powered by Disqus
↑ Back to top | Tablatures and chords are parodies/interpretations of the original songs. You may use it for private study, scholarship, research or language learning purposes only