>
 >
Cheap Escape

Cheap Escape Bass Tabs

Fandangle - Cheap Escape chords, tabs, tablatures, lyrics

Guitar lessons | Add/correct | Request | Top 50 tabs Artists:  A B C D E F G H I J K L M N O P Q R S T U V W X Y Z 0-9

Cheap Escape Bass Tabs – Fandangle

CD, Sheet music, Poster

Do you like Cheap Escape? Share with your friends now
Bass Tabs
-------------------------------------------------------------------------------
                                    FANDANGLE - CHEAP ESCAPE
-------------------------------------------------------------------------------


Taken from the 2008 album "Fly Away"

TUning: E A D G

INTRO
G|------------|---------------|-----------|---------7p6--------|
D|----6/9-----|---------------|---6/9-----|-------7------------|
A|--7-----5-0-|-0-4-5-7-5-4-0-|-7-----5-0-|-0-4-7--------------|
E|------------|---------------|-----------|--------------------|

G|------------|---------------|-----------|--------------------|
D|----6/9-----|---------------|---6/9-----|--------------------|
A|--7-----5-0-|-0-4-5-7-5-4-0-|-7-----5-0-|-0-0-0--------------|
E|------------|---------------|-----------|-------4-2----------|

SECOND HALF OF INTRO (After "Wooooaaaaah")

G|-------------------------|----------------------6--7-------|
D|---9h11p9----------------|---7h9p7-------------------------|
A|-7--------9-7p6------6-7-|-5-------7\5p4------4---5--------|
E|----------------7--7-----|---------------5--5--------------|

G|---------------------------|---------------------------------|
D|---9h11p9------------------|---7h9p7-------------------------|
A|-7--------9-7p6----6-7-9-7-|-5-------7\5p4-------------------|
E|----------------7----------|---------------5--5-5-4-2--------|

VERSE 1 ("get a job, get a car")

G|-------------------------------------|
D|---------0-0-4-7---------------------|
A|-----------------0-0-4-4-5-5-6-6-----|
E|-0-0-4-7-----------------------------| (repeat 3 more times)

PRE CHORUS ("i got a problem keeping me down")

G|-------------------------|----------------------6--7-------|
D|---9h11p9----------------|---7h9p7-------------------------|
A|-7--------9-7p6------6-7-|-5-------7\5p4------4---5--------|
E|----------------7--7-----|---------------5--5--------------|

G|-------------------------|---------------------------------|
D|---9h11p9----------------|---7h9p7-------------------------|
A|-7--------9-7p6------6-7-|-5-------7\5p4-------------------|
E|----------------7--7-----|---------------5--5-5-4-2--------|

RIFF 1

G|-----------|-----------|---------|-------------|
D|-----------|-----------|---------|--------7----|
A|-7-6h7p6---|---------5-|-6h7p6---|-------5---7-|
E|---------7-|-6h7p6-5---|-------7-|-6h7p6----5--| (repeat)

TROMBONE SOLO / VERSE 2 - Same as Verse 1.

PRE CHORUS

CHORUS

G|-----------------------------------------------------------------|
D|-----------------------------------------------------------------|
A|-----------------5-4-2-4-0-2-4-5-----------------5-4-2-4-0-2-4-5-|
E|-0-2-4-5-7-5-4-2-----------------0-2-4-5-7-5-4-2-----------------|

G|----------------------------------------|
D|----------------------------------------|
A|-7-9-11-12-14-12-11-9-5-4-2-4-0-2-4-5---|
E|----------------------------------------|

G|---------------------------------|
D|---------------------------------|
A|-----------------5-4-2-4-0-2-4-5-|
E|-0-2-4-5-7-5-4-2-----------------|

RIFF 2 (same as riff 1)

MIDDLE 8

G|---------|--------------------------|
D|---------|--------------------------|
A|-7--5--0-|-7--9--12-----------------|
E|---------|--------------------------| repeat until whole band kicks in:

G|---------|--------------|-----------|
D|---------|--------------|-----------|
A|----5--0-|---------5--0-|-5-4-------|
E|-0-------|-0--2-4-------|-----0-5---|

VERSE 3 (same as verse 1)

CHORUS (same as previous chorus)

OUTRO (same as riff 1)

| /  slide up
| \  slide down
| h  hammer-on
| p  pull-off
| ~  vibrato
| +  harmonic
| x  Mute note
===============================================================================





Comments


Popular Fandangle tabs & chords
Shits And Giggles Bass Tabs
Hello Goodbye Tabs
Just Like You Tabs
Oliver Twist Tabs


Song lyrics



↑ Back to top | Tablatures and chords are parodies/interpretations of the original songs. You may use it for private study, scholarship, research or language learning purposes only
© 2014 AZChords.com Contact us | Privacy policy | DMCA | Add/correct tabs | Request tabs | Top 50 tabs