» » »

Radiator Tabs (ver.4)

Artists:  A B C D E F G H I J K L M N O P Q R S T U V W X Y Z # 

Radiator Tabs (ver.4)

Family Force 5
Rating:
0/5 (0 votes)

Hard to play? Try these video lessons and learn fast.
                INTRO:
E--------------------------------------------------------------------|
B--------------------------------------------------------------------|
G--------------------------------------------------------------------|
D--------------------------------------------------------------------|
A--------------------------------------------------------------------|
D--7--7--7--7--7--7--10--10--4--4--4--4--4--4-10--10-----------------| x2

VERSES:
E--------------------------------------------------------------------|
B--------------------------------------------------------------------|
G--------------------------------------------------------------------|
D--------------------------------------------------------------------|
A--------------------------------------------------------------------|
D--77-77-77-77-77-77-1010-1010-4-44-44-44-55-55-10--10---------------|

E--------------------------------------------------------------------|
B--------------------------------------------------------------------|
G--------------------------------------------------------------------|
D--------------------------------------------------------------------|
A--------------------------------------------------------------------|
D--77-77-77-77-77--77-1010-1010-4-44-44-44-55-55-22-00---------------|

CHORUS:
E--------------------------------------------------------------------|
B--------------------------------------------------------------------|
G--------------------------------------------------------------------|
D--------------------------------------------------------------------|
A--------------------------------------------------------------------|
D--7--5--7--10--7--5--7--10--12--10--12--10--5--3--10----------------|



E--------------------------------------------------------------------|
B--------------------------------------------------------------------|
G--------------------------------------------------------------------|
D--------------------------------------------------------------------|
A--------------------------------------------------------------------|
D--5--7---5--7----5-7--5-2--5-7--5-2--5-7--5-2-5--12--10--12--10-----|

SOLO:
E--------------------------------------------------------------------|
B--------------------------------------------------------------------|
G--------------------------------------------------------------------|
D-----------------------------7-5-7----7-8-7-------------------------|
A---55--7-8-10--55-7-8-10--55-------55-------55-7-8-10--55-7-8-10----|
D--------------------------------------------------------------------|

E--------------------------------------------------------------------|
B--------------------------------------------------------------------|
G--------------------------------------------------------------------|
D----57575--20202--57575--20202-2v-----------------------------------|
A--------------------------------------------------------------------|
D--------------------------------------------------------------------|

and you can piece it together from there! this song is awesome and easy for guitar, so 
try it!
-Lazer Glow
            
Hard to play? Try these video lessons and learn fast. | Correct




comments powered by Disqus
↑ Back to top | Tablatures and chords are parodies/interpretations of the original songs. You may use it for private study, scholarship, research or language learning purposes only