» » »

Family Force 5, Kountry Gentlemen Bass tabs (ver.1)

Artists:  A B C D E F G H I J K L M N O P Q R S T U V W X Y Z # 

Kountry Gentlemen Bass tabs (ver.1)

Family Force 5 Tabs
 Rating:
4/5 (4 votes)
Kountry Gentlemen lessons Tabs too difficult? Try these video lessons and learn fast
1
                -------------------------------------------------------------------------------
-------------------------------------------------------------------------------

I know there are messed up parts, but 
I still think this is a better tab than
I’ve seen so far...
PLEASE RATE AND COMMENT!!! (help me fix mistakes!)

Tuning: Standard

Intro
G|-----------------|
D|-----------------|
A|-777778-57777785-|
E|-----------------|x4

G|---------------|   |------------------------|
D|---------------|   |-6----6-----------------|
A|-5-7----557-75-|   |----5---5--5--5h7p5h7p5-|
E|------45-------|x4 |------------------------|

Verse
G|------------------------------------------------|
D|------------------------------------------------|
A|-5-7-7---5757-577---757---5-7-7---5-7-----------|
E|-------------5-------------------------5-12-7-0-|

Chorus
G|---------------|   |------------------------|
D|---------------|   |-6----6-----------------|
A|-5-7----557-75-|   |----5---5--5--5h7p5h7p5-|
E|------45-------|x4 |------------------------|

G|---------------|   |------------------------|
D|---------------|   |-6----6-----------------|
A|-5-7----557-75-|   |----5---5--5--5h7p5h7p5-|
E|------45-------|x4 |------------------------|

Verse
G|-------------------------------------|
D|-------------------------------------|
A|-5-7-7-----5-7-7-----5-7-7-----5-7-7-|
E|---------5---------5---------5-------|

G|-------------------------------------------|
D|-------------------------------------------|
A|-------------------------8~---8~---8~---8~-|
E|-0~------0~------0~------------------------|

G|-----------------------------------------------------------------------|
D|-----------------------------------------------------------------------|
A|-5-7-7------5-7--5-7-7------5-7--5-7-7------5-7--5-7-7------5-7--5-7-7-|
E|-----------------------------------------------------------------------|

G|----------------------------------------------------------|
D|----------------------------------------------------------|
A|-5-7--5-7-7------5-7--5-7-7------5-7--5~---0~---/12~---0~-|
E|----------------------------------------------------------|

Chorus
G|---------------|   |------------------------|
D|---------------|   |-6----6-----------------|
A|-5-7----557-75-|   |----5---5--5--5h7p5h7p5-|
E|------45-------|x4 |------------------------|

G|---------------|   |------------------------|
D|---------------|   |-6----6-----------------|
A|-5-7----557-75-|   |----5---5--5--5h7p5h7p5-|
E|------45-------|x4 |------------------------|

Bridge
G|-----------------|
D|-----------------|
A|-777778-57777785-|
E|-----------------|xA TON

Chorus
G|---------------|   |------------------------|
D|---------------|   |-6----6-----------------|
A|-5-7----557-75-|   |----5---5--5--5h7p5h7p5-|
E|------45-------|x4 |------------------------|

G|---------------|   |---------------------------|
D|---------------|   |-6----6--------------------|
A|-5-7----557-75-|   |----5---5--5--5h7p5h7p5-7~-|
E|------45-------|x4 |---------------------------|

| /  slide up
| \  slide down
| h  hammer-on
| p  pull-off
| ~  let note ring
| +  harmonic
| x  Mute note
===============================================================================
            
Submit corrections

comments powered by Disqus
↑ Back to top | Family Force 5 Bass for Kountry Gentlemen. Lyrics for acoustic guitar and electric guitar. 1 Tablatures and chords are parodies/interpretations of the original songs. You may use it for private study, scholarship, research or language learning purposes only