» » »

Family Force 5, Fever Tabs (ver.2)

Artists:  A B C D E F G H I J K L M N O P Q R S T U V W X Y Z # 

Fever Tabs (ver.2)

Family Force 5 Tabs
 Rating:
4.3/5 (6 votes)
Fever lessons Tabs too difficult? Try these video lessons and learn fast
                Family Force 5: Fever
Tuning: Drop D

I know this probably isn't 100% right, but no one else had it tabbed, and this will at 
help you get a start if it's wrong. Leave comments if you have corrections...

INTRO:
E|------------------------------------------------------|
B|------------------------------------------------------|
G|------------------------------------------------------|
D|-2-2-2--6-6—-5-5-5-0-0-0-2-2-2—-7--8-8-8-0-0-0--------|
A|-2-2-2--6-6—-5-5-5-0-0-0-2-2-2--7--8-8-8-0-0-0--------|
D|-2-2-2--6-6—-5-5-5-0-0-0-2-2-2--7--8-8-8-0-0-0--------|

VERSE:
I think My body's in shock, I just don't know what to do...
E|-----------------------------------------------------|
B|-----------------------------------------------------|
G|-----------------------------------------------------|
D|---------2-3-2-------------------------2-3-2---------|
A|---------2-3-2-------------------------2-3-2---------|
D|---------2-3-2-------------------------2-3-2---------|

CHORUS:
E|---------------------------------------------------------------|
B|---------------------------------------------------------------|
G|--------9-10--------11-12----9-9-9-8-10-9-9-8-9-9-9-8-10-9-9-8-|
D|-2-2-2--9-10-2-2-2--11-12--------------------------------------|
A|-2-2-2--7-8--2-2-2--9--10--------------------------------------|
D|-2-2-2-------2-2-2---------------------------------------------|

VERSE:same thing except add this right before going into the chorus
D|----5*>>> divebomb--|
A|--------------------|
D|--------------------|

BRIDGE:
E|-------------------|
B|-------------------|
G|-------------------|
D|--2----3----2----5-|
A|--2----3----2----5-|
D|--2----3----2----5-|

CHORUS: same as intro
            
Submit corrections

comments powered by Disqus
↑ Back to top | Family Force 5 Tabs for Fever. Lyrics for acoustic guitar and electric guitar. Tablatures and chords are parodies/interpretations of the original songs. You may use it for private study, scholarship, research or language learning purposes only