» » »

Family Force 5, Drama Queen Bass tabs (ver.2)

Artists:  A B C D E F G H I J K L M N O P Q R S T U V W X Y Z # 

Drama Queen Bass tabs (ver.2)

Family Force 5 Tabs
 Rating:
3.6/5 (5 votes)
Drama Queen lessons Tabs too difficult? Try these video lessons and learn fast
1
                Remember to put it in dropped D tuning!

G------7-7----------------------------------------|
D---------------8-8-------10-10------3-3----------|
A---5---------------------------------------------|
D------------8--------10----------3---------------|

G-------------------------------------------------|
D-------------------------------------------------|
A-------------------------------------------------|
D---5--55-6-6-6---5--55-6-6-6---5--55-6-6-6-------|

G------7-7----------------------------------------|
D---------------8-8-------10-10------3-3----------|
A---5---------------------------------------------|
D------------8--------10----------3---------------|

rest...

G-----------------------------|| X6
D-----------------------------||
A-----------------------------||
D---5\--5\----5\--5-6-6-------||

rest...

G------7-7----------------------------------------|
D---------------8-8-------10-10------3-3----------|
A---5---------------------------------------------|
D------------8--------10----------3---------------|


G-------------------------------------------------||X2
D-------------------------------------------------||
A-------------------------------------------------||
D---5--55-6-6-6---5--55-6-6-6---5--55-6-6-6-------||
                                                  ||
G------7-7----------------------------------------||
D---------------8-8-------10-10------3-3----------||
A---5---------------------------------------------||
D------------8--------10----------3---------------||

G-----------------------------|| X10
D-----------------------------||
A-----------------------------||
D---5\--5\----5\--5-6-6-------||

rest...

G------7-7----------------------------------------|
D---------------8-8-------10-10------3-3----------|
A---5---------------------------------------------|
D------------8--------10----------3---------------|


G-------------------------------------------------||X2
D-------------------------------------------------||
A-------------------------------------------------||
D---5--55-6-6-6---5--55-6-6-6---5--55-6-6-6-------||
                                                  ||
G------7-7----------------------------------------||
D---------------8-8-------10-10------3-3----------||
A---5---------------------------------------------||
D------------8--------10----------3---------------||


G-----------------------------|
D-----------------------------|
A-----------------------------|
D---5\--5\----5\--5-6-6-------|

G-----------------------------|
D-----------------------------|
A-----------------------------|
D---5\--5\----5\--------------|

paause..

G-------------------------------------------------||X2
D-------------------------------------------------||
A-------------------------------------------------||
D---55--55---55--55--6-6---33--33---33--33--1-1---||

rest...

G-------------------------------------------------||X2
D-------------------------------------------------||
A-------------------------------------------------||
D---5--55-6-6-6---5--55-6-6-6---5--55-6-6-6-------||
                                                  ||
G------7-7----------------------------------------||
D---------------8-8-------10-10------3-3----------||
A---5---------------------------------------------||
D------------8--------10----------3---------------||


G-----------------------------||X3
D-----------------------------||
A-----------------------------||
D---5\--5\----5\--5-6-6-------||


G-----------------------------|
D-----------------------------|
A-----------------------------|
D---5\------------------------|
            
Submit corrections

comments powered by Disqus
↑ Back to top | Family Force 5 Bass for Drama Queen. Lyrics for acoustic guitar and electric guitar. 1 Tablatures and chords are parodies/interpretations of the original songs. You may use it for private study, scholarship, research or language learning purposes only