» » »

Drama Queen Bass tabs (ver.1)

Artists:  A B C D E F G H I J K L M N O P Q R S T U V W X Y Z # 

Drama Queen Bass tabs (ver.1)

Family Force 5
Rating:
5/5 (2 votes)

Hard to play? Try these video lessons and learn fast.
                RIFF 1 (main riff)

G-----------------------------------------------------------------------|
D-----------------------------------------------------------------------|
A-----------------------------------------------------------------------|
E---3---3-3--4-4-4--3---3-3--4-4-4--3---3-3--4-4-4--3-------------------|


RIFF 2 (cool sounding part)

G------6-6------2-2------4-4--------------------------------------------|
D-----------------------------------------------------------------------|
A---4--------0--------2------------2------------------------------------|
E------------------------------0----------------------------------------|
            
Hard to play? Try these video lessons and learn fast. | Correct




comments powered by Disqus
↑ Back to top | Tablatures and chords are parodies/interpretations of the original songs. You may use it for private study, scholarship, research or language learning purposes only