» » »

Family Force 5, Drama Queen Tabs (ver.1)

Artists:  A B C D E F G H I J K L M N O P Q R S T U V W X Y Z # 

Drama Queen Tabs (ver.1)

Family Force 5 Tabs
 Rating:
4/5 (10 votes)
Drama Queen lessons Tabs too difficult? Try these video lessons and learn fast
1
                ok i was bored so i tabbed this song... hope u like it(;

tuning: drop d

key:
/ slide up
\ slide down
h hammer
* mute
~ let ring

intro (both guitars):

e|--------------------------------------------------------------------|
B|--------------------------------------------------------------------|
G|--------------------------------------------------------------------|
D|5-5-5-6h-5-5-5-5-5-5-6h-5-5-5-5-5-5-6h-5-5-5-5-5-5-6h-5-5-5-5-5-5-6h|
A|--------------------------------------------------------------------|
D|--------------------------------------------------------------------|

   ********************************************************(slowly stop muting)

e|--------------------------------------------|
B|--------------------------------------------|
G|--------------------------------------------|
D|5-5-5-6h-5-5-5-5-5-5-6h-5-5-5-5-5-5-6h-5-5-5|
A|--------------------------------------------|
D|--------------------------------------------|

guitar 1:

e|------------------------------------------------------------------------|
G|------------------------------------------------------------------------|
B|------------------------------------------------------------------------|
D|3-5h--3-5h/6-6-6-3-5h--3-5h/6-6-6-3-5h--3-5h-6-6-6-5-5-5-6h-5-5-5-5-5-6h|
A|3-5h--3-5h/6-6-6-3-5h--3-5h/6-6-6-3-5h--3-5h-6-6-6----------------------|
D|3-5h--3-5h/6-6-6-3-5h--3-5h/6-6-6-3-5h--3-5h-6-6-6----------------------|

guitar 2:

e|--------------------------------------------------------------------------|
B|--------------------------------------------------------------------------|
G|2/4--2/4/5-5-5-2/4--2/4/5-5-5-2/4--2/4/5-5-5------------------------------|
D|3/5--3/5/6-6-6-3/5--3/5/6-6-6-3/5--3/5/6-6-6-5-5-5-6h-5-5-5-5-5-6h-5-5-5--|
A|--------------------------------------------------------------------------|
D|--------------------------------------------------------------------------|

verse: (starts at "thats somethin that makes u hurt")

both guitars
e|-----------------|
B|-----------------|
G|4\4\--4\4\-6-6---| x6
D|5\5\--5\5\-6-6---|
A|-----------------|
D|-----------------|

prechorus:same as intro
chorus:

guitar 1: (x2)

e|--------------------------------------------------------------------------|
B|--------------------------------------------------------------------------|
G|--------------------------------------------------------------------------|
D|3-5h--3-5h/6-6-6-3-5h--3-5h/6-6-6-3-5h--3-5h/6-6-6-5-5-5-6h-5-5-5-5-5-5-6h|
A|3-5h--3-5h/6-6-6-3-5h--3-5h/6-6-6-3-5h--3-5h/6-6-6------------------------|
D|3-5h--3-5h/6-6-6-3-5h--3-5h/6-6-6-3-5h--3-5h/6-6-6------------------------|

guitar 2 (x2)

e|------------------------------------------------------------------------|
B|------------------------------------------------------------------------|
G|2/4--2/4/5-5-5-2/4--2/4/5-5-5-2/4--2/4/5-5-5----------------------------|
D|3/5--3/5/6-6-6-3/5--3/5/6-6-6-3/5--3/5/6-6-6-5-5-5-6h-5-5-5-5-5-6h-5-5-5|
A|------------------------------------------------------------------------|
D|------------------------------------------------------------------------|
post chorus:

guitar1 (x2)                          guitar 2:

e|-------------|           |---------------|
B|-------------|           |---------------|
G|-------------|          |4\4\--4\4\-5-5--|
D|5\5\--5\5\-6-6|         |5\5\--5\5\-6-6--|
A|5\5\--5\5\-6-6|         |----------------|
D|5\5\--5\5\-6-6|         |----------------|

verse (starts at "why do u like to stir this...")
prechorus
chorus
postchorus
bridge:

guitar 1

e|----------------------------------|
B|----------------------------------|
G|----------------------------------|
D|5\5\--5\5\-6-6-3\3\-x-x-3\3\-6-6--|
A|5\5\--5\5\-6-6-3\3\-x-x-3\3\-6-6--|
D|5\5\--5\5\-6-6-3\3\-x-x-3\3\-6-6--|

guitar 2

e|----------------------------------|
B|----------------------------------|
G|4\4\--4\4\-5-5-2\2\-x-x-2\2\-5-5--|
D|5\5\--5\5\-6-6-3\3\-x-x-3\3\-6-6--|
A|----------------------------------|
D|----------------------------------|

both

e|-----------------------|
B|-----------------------|
G|-----------------------|
D|5~~~5~5~6-6-3~~~3~3~6-6|
A|-----------------------|
D|-----------------------|

starting at "theres no comparison...": same as prechorus
chorus
post chorus

the end.

well, thts it. also check out my other tab: never let me go ver. 2. any way feel free to 
and rate xD <3 jessica
            
Submit corrections

comments powered by Disqus
↑ Back to top | Family Force 5 Tabs for Drama Queen. Lyrics for acoustic guitar and electric guitar. 1 Tablatures and chords are parodies/interpretations of the original songs. You may use it for private study, scholarship, research or language learning purposes only