» » »

Family Force 5, D-i-e 4 Y-o-u Tabs (ver.1)

Artists:  A B C D E F G H I J K L M N O P Q R S T U V W X Y Z # 

D-i-e 4 Y-o-u Tabs (ver.1)

Family Force 5 Tabs
 Rating:
4/5 (6 votes)
D-i-e 4 Y-o-u lessons Tabs too difficult? Try these video lessons and learn fast
1
                Family Force 5
D-I-E 4 Y-O-U
Dance or Die

INTRO:

Guitar 1
e|----------------------------------|
B|----------------------------------|
G|----------------------------------|
D|----------------------------------|
A|---5--7-8--5--8-7-----------------|
D|-00-00-0-00-00-0------------------|

Guitar 2
e|----------------------------------|
B|----------------------------------|
G|----------------------------------|
D|----------------------------------|
A|---5--7-8--5--12-10---------------|
D|-00-00-0-00-00-0------------------|

Guitar 1
e|----------------------------------|
B|----------------------------------|
G|-77-77----------------------------|
D|-77-77-88-55----------------------|
A|-55-55-88-55----------------------|
D|-------88-55----------------------|

Guitar 2
e|----------------------------------|
B|----------------------------------|
G|-10-10--12-12--10-10--77----------|
D|-10-10--10-10--10-10--77----------|
A|-8--8---10-10--8--8---55----------|
D|----------------------------------|


VERSE: not until :42

Guitar 1
e|----------------------------------|
B|----------------------------------|
G|-77-1010--------------------------|
D|-77-1010-88-55--------------------|
A|-55-8-8--88-55--------------------|
D|---------88-55--------------------|


PRE CHORUS: I have no clue what is happening there, sorry


CHORUS: 

Guitar 1
e|----------------------------------|
B|----------------------------------|
G|-77-77----------------------------|
D|-77-77-88-55----------------------|
A|-55-55-88-55----------------------|
D|-------88-55----------------------|

Guitar 2
e|----------------------------------|
B|----------------------------------|
G|-10-10--12-12--10-10--77----------|
D|-10-10--10-10--10-10--77----------|
A|-8--8---10-10--8--8---55----------|
D|----------------------------------|

Both Guitars
e|-----------------------------------|
B|-----------------------------------|
G|-7-7-7-7-1010-9-9--7-7-7-7-1010-9-9|
D|-7-7-7-7-1010-9-9--7-7-7-7-1010-9-9|
A|-5-5-5-5-8-8--7-7--5-5-5-5-8-8--7-7|
D|-----------------------------------|

BACK TO INTRO

VERSE

CHORUS

INTRO

BRIDGE: same as the intro just adjust to the beat


FINAL CHORUS: 
Guitar 1
e|----------------------------------|
B|----------------------------------|
G|-77-77----------------------------|
D|-77-77-88-55----------------------|
A|-55-55-88-55----------------------|
D|-------88-55----------------------|

Guitar 2
e|----------------------------------|
B|----------------------------------|
G|-10-10--12-12--10-10--77----------|
D|-10-10--10-10--10-10--77----------|
A|-8--8---10-10--8--8---55----------|
D|----------------------------------|
            
Submit corrections

comments powered by Disqus
↑ Back to top | Family Force 5 Tabs for D-i-e 4 Y-o-u. Lyrics for acoustic guitar and electric guitar. 1 Tablatures and chords are parodies/interpretations of the original songs. You may use it for private study, scholarship, research or language learning purposes only