» » »

Family Force 5, Color Of Water Tabs (ver.1)

Artists:  A B C D E F G H I J K L M N O P Q R S T U V W X Y Z # 

Color Of Water Tabs (ver.1)

Family Force 5 Tabs
 Rating:
4.2/5 (5 votes)
Color Of Water lessons Tabs too difficult? Try these video lessons and learn fast
                -------------------------------------------------------------------------------
-------------------------------------------------------------------------------

It's all here, just work out where the bits go :)

Tuning: Drop D

Intro

e|----------------------------------------------------------|
B|----------------------------------------------------------|
G|----------------------------------------------------------|
d|----------------------------------------------------------|
A|----------3-----------------------------------------------|
D|--0-4-0-4---0-5-4-0-5-4-0---------------------------------| x2

Versey bit

e|----------------------------------------------------------|
B|----------------------------------------------------------|
G|----------5-----------------------------------------------|
d|--0-4-0-4-5-0-5-4-0-5-4-0---------------------------------|
A|--0-4-0-4-3-0-5-4-0-5-4-0---------------------------------|
D|--0-4-0-4---0-5-4-0-5-4-0---------------------------------|


PRE-CHORUS
(work when you need to play each bit for when, cant do it all)
e|----------------------------------------------------------|
B|----------------------------------------------------------|
G|-----7----------------------------------------------------|
d|-7-9-7-5----------------------2-2-4-2-0-~2-0--------------|
A|-7-9---5--------------------------------------------------|
D|-7-9---5--------------------------------------------------|

e|----------------------------------------------------------|
B|----------------------------------------------------------|
G|-----7----------------------------------------------------|
d|-7-9-7-5---------2-2-4-2-0-2-2----------------------------|
A|-7-9---5---------2-2-4-2-0-2-2----------------------------|
D|-7-9---5---------2-2-4-2-0-2-2----------------------------|

CHORUS

e|----------------------------------------------------------|
B|----------------------------------------------------------|
G|----------------------------------------------------------|
d|-0-0-(0)-7-7-(7)-5-5-5-5-5--------------------------------|
A|-0-0-(0)-7-7-(7)-5-5-5-5-5--------------------------------|
D|-0-0-(0)-7-7-(7)-5-5-5-5-5--------------------------------|

e|----------------------------------------------------------|
B|----------------------------------------------------------|
G|----------------------------------------------------------|
d|-0-0-(0)-7-7-(7)-5-5-(5)-2-2-2-2-2------------------------|
A|-0-0-(0)-7-7-(7)-5-5-(5)-2-2-2-2-2------------------------|
D|-0-0-(0)-7-7-(7)-5-5-(5)-2-2-2-2-2------------------------|

e|----------------------------------------------------------|
B|----------------------------------------------------------|
G|----------------------------------------------------------|
d|-0-0-(0)-7-7-(7)-8-8-(8)-9-9-9-9----2-2-(2)-5-5-5-5-------|
A|-0-0-(0)-7-7-(7)-8-8-(8)-9-9-9-9----2-2-(2)-5-5-5-5-------|
D|-0-0-(0)-7-7-(7)-8-8-(8)-9-9-9-9----2-2-(2)-5-5-5-5-------|

VERSE

PRE-CHORUS

CHORUS

Synth Bit

e|----------------------------------------------------------|
B|----------------------------------------------------------|
G|-14-12-10-12-7---14-12-10-12-7----------------------------|
d|----------------------------------------------------------|
A|----------------------------------------------------------|
D|----------------------------------------------------------| x2

BUILD UP THINGY 

(palm mute)
e|----------------------------------------------------------|
B|----------------------------------------------------------|
G|----------------------------------------------------------|
d|----------------------------------------------------------|
A|----------------------------------------------------------|
D|-10-10-10-10-10-10-10-10-9-9-9-9-9-9-9-8-8-8-8-8-8-8------|

THEN THIS OTHER PRE-CHORUS THING

e|----------------------------------------------------------|
B|----------------------------------------------------------|
G|----------------------------------------------------------|
d|-5-5-5-3-5-5----------------------------------------------|
A|-5-5-5-3-5-5----------------------------------------------|
D|-5-5-5-3-5-5----------------------------------------------|

CHORUS x2

INTRO

VERSE WITH DISTORTION ON LIKE A MILLIOOON!!!!

And you're done:)
            
Submit corrections

comments powered by Disqus
↑ Back to top | Family Force 5 Tabs for Color Of Water. Lyrics for acoustic guitar and electric guitar. Tablatures and chords are parodies/interpretations of the original songs. You may use it for private study, scholarship, research or language learning purposes only