» » »

Summer Days Short Nights Tabs (ver.1)

Artists:  A B C D E F G H I J K L M N O P Q R S T U V W X Y Z # 

Summer Days Short Nights Tabs (ver.1)

False Reality
Rating:
0/5 (0 votes)

Hard to play? Try these video lessons and learn fast.
                
Album-Skin Deep


Intro
guitar 1 plays this 4 times............................ 

E|---------------------------------------------------------------------------
B|---------------------------------------------------------------------------
G|---------------------------------------------------------------------------
D|-----------------------------------2---------2-----------------------------
A|-----2------3------3------3----3------3---------------5--------5-----------
E|--3------3------1------1-----------------------3---------3------------------

and on the second time guitar 2 plays this along with guitar 1

E|-------------------------------------------------------
B|-------------------------------------------------------
G|-------------------------------------------------------
D|-------------------------------2222--------------------
A|--2222---------3333------------3333----------5555------
E|--3333---------1111--------------------------3333------

Verse 1 x2  guitar 1

E|------------------------------------------------------------------
B|------------------------------------------------------------------
G|------------------------------------------------------------------
D|--2222---------------------------------------------------------
A|--3333------2222---3333----5555-----------------------------
E|------------3333---1111----3333-----------------------------
guitar 2
E|---------------------------------------------------------------
B|---------------------------------------------------------------
G|--5------------------------------------------------------------
D|--5-----------------3------------------------------------------
A|--3-----------------3------------------------------------------
E|--------------------1------------------------------------------


Chorus x3 guitar1

E|------------------------------------------------
B|------------------------------------------------
G|------55555-------------------------------------
D|------55555---55555---88888---33333------
A|------33333---55555---88888---33333------
E|--------------33333---66666---11111------

guitar 2

E|-------------------------------------------
B|-------------------------------------------
G|-------------------------------------------
D|-------------------------------------------
A|-3-353------------------------------------
E|-----------3-353----6-686----1-131--------

Bridge Riff x4 . While one guitar plays bridge riff the other plays the solo but it will be here soon once I
 know it
E|--------------------------------------
B|--------------------------------------
G|--------------------------------------
D|--88888---55555---33333-33333---------
A|--88888---55555---33333-33333---------
E|--66666---33333---11111-11111---------

the last chorus is played 5 times and on the last 2 times the second solo is played

E|-----------------------------------------------------------------------------
B|-----------------------------------------------------------------------------
G|-----------------------------------------------------------------------------
D|-----------------------------------------------------------------------------
A|--7-5-3--7-5-3--6-5-3--5-5-3---7-5-3--7-5-3--6-5-3--5-5-3--------
E|------------------------------------------------------------------------------

outro

E|-------------------------------------- 
B|--------------------------------------
G|--------------------------------------
D|----------3333--2222----5555------
A|---2222---3333--3333----5555------
E|---3333---1111----------3333------

Introx4
versex2
chorusx3
versex2
chorusx3
bridge riffx4
chorusx5
outro

all done
            
Hard to play? Try these video lessons and learn fast. | Correct




comments powered by Disqus
↑ Back to top | Tablatures and chords are parodies/interpretations of the original songs. You may use it for private study, scholarship, research or language learning purposes only