» » »

False Reality, Skin Deep Tabs (ver.1)

Artists:  A B C D E F G H I J K L M N O P Q R S T U V W X Y Z # 

Skin Deep Tabs (ver.1)

False Reality Tabs
 Rating:
4/5 (4 votes)
Skin Deep lessons Tabs too difficult? Try these video lessons and learn fast
1
                this song is from our new amazing album 

Intro x4

E|-----------------------------------------------------------------------------------
B|-----------------------------------------------------------------------------------
G|-----------------------------------------------------------------------------------
D|---7-----------------3-----------------5---------------3---------------------------
A|---7~----7----5------3~----3----5------5~----5----2----3~----3----0----------------
E|---5-----------------1-----------------3---------------1---------------------------

Versex4 
Guitar 1 plays this..............

E|-----------------------------------------------------------------------------------
B|-----------------------------------------------------------------------------------
G|-22222222------55555555-----------------77777777-----------------------------------
D|-00000000------33333333---55555555------55555555-----------------------------------
E|--------------------------33333333-------------------------------------------------

...........guitar 2 plays this

E|-----------------------------------------------------------------------------------
B|-----------------------------------------------------------------------------------
G|-----------------------------------------------------------------------------------
D|---------------------------------0------0------------------------------0---------0-
A|--23230--23230--23230-23230--2323---2323-----23230--23230---23230--2323-2323-2323--
E|----------------------------------------------------------------------------3------

Pre-Chorus(no instruments)

chorusx4

E|----------------------------------------------------------------------------------
B|----------------------------------------------------------------------------------
G|--------------9------------------7---------------------4-----------------5---------
D|--------------0------------------0---------------------0-----------------0---------
A|--7-7-7-7-7-7-7-7----7-7-7-7-7-7-7-7-------3-3-3-3-3-3-3-3---3-3-3-3-3-3-3-3------
E|--5-5-5-5-5-5-5-5----5-5-5-5-5-5-5-5-------1-1-1-1-1-1-1-1---1-1-1-1-1-1-1-1-------

Bridge riffx4

E|-------------------------------------------------------------
B|------------------------------------------------------------
G|------------------------------------------------------------
D|---7----------------3---------------5-----------3-----------
A|---7~---------------3~--------------5~----------3~---------
E|---5----------------1---------------3-----------1-----------

Intro
verse
prechorus
chorus
verse
prechorus
chorus
bridge riff
chorus
outro (same as intro)
            
Submit corrections

comments powered by Disqus
↑ Back to top | False Reality Tabs for Skin Deep. Lyrics for acoustic guitar and electric guitar. 1 Tablatures and chords are parodies/interpretations of the original songs. You may use it for private study, scholarship, research or language learning purposes only