» » »

False Reality, Break Up Tabs (ver.1)

Artists:  A B C D E F G H I J K L M N O P Q R S T U V W X Y Z # 

Break Up Tabs (ver.1)

False Reality Tabs
 Rating:
4/5 (4 votes)
Break Up lessons Tabs too difficult? Try these video lessons and learn fast
                this is the first song we ever wrote and recorded hope you enjoy playin it

verse

E|-----------------------------------------------------------------------------------
B|-----------------------------------------------------------------------------------
G|----------------------------------------------------------------------------------
D|--7-7-77-2-0---7-7-77---2--0---5-5-55-2-0---5-5-55-2--0----3-3-33------3-3-33------
A|--7-7-77-----3-7-7-77--------3-5-5-55-----3-5-5-55------3--3-3-33-232--3-3-33-232--
E|--5-5-55-------5-5-55----------3-3-33-------3-3-33---------1-1-11------1-1-11------

E|---------------------------------------------------------------------------------
B|---------------------------------------------------------------------------------
G|-----------------------------------------------------------------------------------
D|--7-7-77--2--0----7-7-77---2--0---7-7-77--5555--3-3-33--5555--7-7-77--5555--3-3-33-
A|--7-7-77-------3--7-7-77--------3-7-7-77--5555--3-3-33--5555--7-7-77--5555--3-3-33-
E|--5-5-55----------5-5-55----------5-5-55--3333--1-1-11--3333--5-5-55--3333--1-1-11-

E|-----------------------------------------------------------------------------------
B|-----------------------------------------------------------------------------------
G|-----------------------------------------------------------------------------------
D|---2-2-2-22-2222---------------------2-2-2-22-2222-5-5-5-55--7-7-5-5----2-2-2-22-22
A|-0---------------3-3-3-33-2-2-2-22-0----------------------------------0------------
E|----------------------------------------------------------------------------------

E|----------------------------------------------------------------------
B|----------------------------------------------------------------------
G|-----------------------------------------------------------------------
D|22---------------------2-2-2-22-2222-5-5-5-55-7-7-5-5------------------
A|---3-3-3-33-2-2-2-22-0----------------------------------------------
E|------------------------------------------------------------------------

Chorusx3

E|-----------------------------------------------------------------------------------
B|-----------------------------------------------------------------------------------
G|---------------------------------------------------5-5-55-55-5555------------------
D|--7-7-77-3333-3-3-5-5-55-55-5555--7-7-77-9999-9-9--5-5-55-55-5555------------------
A|--7-7-77-3333-3-3-5-5-55-55-5555--7-7-77-9999-9-9--3-3-33-33-3333------------------
E|--5-5-55-1111-1-1-3-3-33-33-3333--5-5-55-7777-7-7----------------------------------

bridge riffx8

E|-----------------------------------------------------------------------------------
B|-----------------------------------------------------------------------------------
G|--------------------5-5-55--7777-77------------------------------------------------
D|---7-7-77--9999-99--5-5-55--7777-77------------------------------------------------
A|---7-7-77--9999-99--3-3-33--5555-55------------------------------------------------
E|---5-5-55--7777-77-----------------------------------------------------------------

verse
chorus
verse
chorus
bridge riff

this has been your loyal host fip one of the guys from false reality .  punx kill
            
Submit corrections

comments powered by Disqus
↑ Back to top | False Reality Tabs for Break Up. Lyrics for acoustic guitar and electric guitar. Tablatures and chords are parodies/interpretations of the original songs. You may use it for private study, scholarship, research or language learning purposes only