>
 >
Where Is Your Boy

Where Is Your Boy Guitar Tabs

Fall Out Boy - Where Is Your Boy chords, tabs, tablatures, lyrics

Guitar lessons | Add/correct | Request | Top 50 tabs Artists:  A B C D E F G H I J K L M N O P Q R S T U V W X Y Z 0-9

Where Is Your Boy Guitar Tabs – Fall Out Boy

CD, Sheet music, Poster

Do you like Where Is Your Boy? Share with your friends now
Tabs
Guitar 1's parts
----------------

intro
(tremolo picking)
E|---------||
B|---------||
G|--6/7----||
D|--x/x----|| listen to the song for strumming
A|--4/5----||
D|---------||

verse
E|--------------------------------------------------||
B|--------------------------------------------------||
G|--77-77-77-77-77-77-77-77-77-77-77-77-77-77-77----||
D|--xx-xx-xx-xx-xx-xx-xx-xx-xx-xx-xx-xx-xx-xx-xx----||
A|--55-55-55-55-55-55-55-55-55-55-55-55-55-55-55----||
D|--------------------------------------------------||
pm     ..    ..    ..    ..    ..    ..    ..

E|--------------------------------------------------||
B|--------------------------------------------------||
G|-9-99-9-99-11-1111-11-1111-9-99-9-99-7-77-777777--||
D|-x-xx-x-xx--x--x-x--x--x-x-x-xx-x-xx-x-xx-xxxxxx--||
A|-7-77-7-77--9--9-9--9--9-9-7-77-7-77-5-55-555555--||
D|--------------------------------------------------||
pm .    .     .       .      .    .    .

pre-chorus
                                                              *
E|---------------------------------------------------------------------------||
B|---------------------------------------------------------------------------||
G|--77777777--99999999----------------------------------------6/7------------||
D|--77777777--99999999--00000000--55555555--55-55-77-77-00-00-x/x------------||
A|--55555555--77777777--00000000--55555555--55-55-77-77-00-00-4/5------------||
D|----------------------00000000--55555555--55-55-77-77-00-00----------------||

chorus
E|--------------------||
B|-----5---7----5-----||
G|--77---7---7----7---||
D|--------------------|| x5
A|--------------------||
D|--------------------||

E|----------------------||
B|-----5---7----5-------||
G|--77---7---7----7-7~--||
D|----------------------||
A|----------------------||
D|----------------------||

repeat intro

repeat verse

pre-chorus
E|------------------------------------------------------------------------||
B|-----------------------------------------------------------------pick---||
G|--77777777--99999999---------------------------------------------slide--||
D|--77777777--99999999--00000000--55555555--55-55-77-77-00-00--5-5-<<<----||
A|--55555555--77777777--00000000--55555555--55-55-77-77-00-00--5-5-<<<----||
D|----------------------00000000--55555555--55-55-77-77-00-00--5-5-<<<----||

repeat chorus

bridge
E|-------------------------------------------------------------------------------------------||
B|-------------------------------------------------------------------------------------------||
G|-------------------------------------------------------------------------------------------||
D|-------77-7-----77-7-------77-7-----77-7------77-7-----77-7-------77-7---7---7---7---7-----||
A|--55-5------5-5------5-555---5--5-5---5--55-5---5--5-5---5--5-555------5---5---5---5---5---||
D|-------------------------------------------------------------------------------------------||
pm  .. .      . .      . ...   .  . .   .  .. .  .   . .   .  . ...      .

                       *
E|-------------------------------------||
B|-------------------------------------||
G|--44444444--22222222-6/7-------------||
D|--44444444--22222222-x/x-------------|| x2
A|--22222222--00000000-4/5-------------||
D|-------------------------------------||

E|--------------------------------------------||
B|--------------------------------------------||
G|--44444444--22222222------------------------||
D|--44444444--22222222--00000000--55555555----|| x2
A|--22222222--00000000--00000000--55555555----||
D|----------------------00000000--55555555----||

chorus
E|--------------------||
B|-----5---7----5-----||
G|--77---7---7----7---||
D|--------------------|| x4
A|--------------------||
D|--------------------||
  ...and maybe he wont find out

final chorus
E|--------------------||
B|-----5---7----5-----||
G|--77---7---7----7---||
D|--------------------|| x7
A|--------------------||
D|--------------------||

E|--------------------------||
B|-----5---7----5-----------||
G|--77---7---7----7-7--7x---||
D|--------------------------||
A|--------------------------||
D|--------------------------||


Guitar 2's parts
----------------

intro
(temolo picking)
E|------------||
B|------------||
G|------------||
D|-12--9--7---|| listen to song for strumming
A|-12--9--7---||
D|-12--9--7---||

verse
E|----------------------------------------------------------------||
B|----------------------------------------------------------------||
G|--77------------------------------77----------------------------||
D|--77--4--55--4--22--4--55--55--7--77--4--55--4--22--4--55--55---||
A|--55--4--55--4--22--4--55--55--7--55--4--55--4--22--4--55--55---||
D|------4--55--4--22--4--55--55--7------4--55--4--22--4--55--55---||

pre-chorus
E|------------------------------------------------------------------------||
B|------------------------------------------------------------------------||
G|--77777777--99999999----------------------------------------------------||
D|--77777777--99999999--00000000--55555555--55-55-77-77-00-00-------------||
A|--55555555--77777777--00000000--55555555--55-55-77-77-00-00-------------||
D|----------------------00000000--55555555--55-55-77-77-00-00-------------||

chorus
E|-------------------------------------------------------||
B|-------------------------------------------------------||
G|-44----------------------------------------------------||
D|-44-55-00-44-55-77-00-44-55-77-00000000-22222222/4h5---||
A|-22-55-00-44-55-77-00-44-55-77-00000000-22222222/4h5---||
D|----55-00-44-55-77-00-44-55-77-00000000-22222222/4h5---||

repeat intro

verse
guitar 1 plays by itself through first half then play this
E|--------------------------------||
B|--------------------------------||
G|--77----------------------------||
D|--77--4--55--4--22--4--55--55---||
A|--55--4--55--4--22--4--55--55---||
D|------4--55--4--22--4--55--55---||

pre-chorus
E|-----------------------------------------------------------------------||
B|-----------------------------------------------------------------------||
G|--77777777--99999999---------------------------------------------------||
D|--77777777--99999999--00000000--55555555--55-55-77-77-00-00--5-5-5-5---||
A|--55555555--77777777--00000000--55555555--55-55-77-77-00-00--5-5-5-5---||
D|----------------------00000000--55555555--55-55-77-77-00-00--5-5-5-5---||

repeat chorus

bridge
guitar 1 plays for a bit then play
E|--------------------------------------------------------------------------------------||
B|--------------------------------------------------------------------------------------||
G|--11-9-------11-9-------11-9----9-11-------11-9-999-11-9-------11-9----9-11--9--------||
D|-------12---------12-12------12------12-12---------------12---------12---------12-----||
A|----------12------------------------------------------------12-------------------12---||
D|--------------------------------------------------------------------------------------||
pm  .  .  .  .  . .  .  .  . .  . .  .  .  .  . . ...  . .  .  .

E|--------------------------------------------------------------------------------------||
B|--------------------------------------------------------------------------------------||
G|--11-9-------11-9-------11-9----9-11-------11-9-999-11-9-------11-9----9-11--9--------||
D|-------12---------12-12------12------12-12---------------12---------12---------12-----||x2
A|----------12------------------------------------------------12-------------------12---||
D|--------------------------------------------------------------------------------------||

E|--------------------------------------------||
B|--------------------------------------------||
G|--44444444--22222222------------------------||
D|--44444444--22222222--00000000--55555555----|| x2
A|--22222222--00000000--00000000--55555555----||
D|----------------------00000000--55555555----||

chorus
E|---------------------------||
B|---------------------------||
G|--44-----------------------||
D|--44--55--00--44--55--77---||
A|--22--55--00--44--55--77---||
D|------55--00--44--55--77---||

E|----------------------------------------------||
B|----------------------------------------------||
G|--7777--9999----------------------------------||
D|--7777--9999--0000--5555--00000000-55555555---||
A|--5555--7777--0000--5555--00000000-55555555---||
D|--------------0000--5555--00000000-55555555---||

final chorus
E|--------------------------------------------------------------------------------------||
B|--------------------------------------------------------------------------------------||
G|--77-77-------------------------------77-77-------7777----------------------------7x--||
D|--77-77-55-55-00-00-44-44-55-55-77-77-77-77-44-44-7777-7777-00000000-22222222/4h5-7x--||
A|--55-55-55-55-00-00-44-44-55-55-77-77-55-55-44-44-5555-7777-00000000-22222222/4h5-5x--||
D|--------55-55-00-00-44-44-55-55-77-77-------44-44------7777-00000000-22222222/4h5-----||
pm  ..    ..    ..    ..    ..    ..    ..    ..





Comments


Popular Fall Out Boy tabs & chords
Calm Before The Storm 2 Bass Tabs
27 Tabs
27 2 Tabs
Beat It 2 Tabs
Dance Dance 2 Tabs
Dance Dance 3 Tabs
I Slept With Someone In Fall Out Boy And All I Got Was This Stupid Song Written About Me Tabs
Short, Fast, And Loud Tabs
Thriller 1 Tabs
Grand Theft Autumn Where Is Your Boy Ukulele


Song lyrics



↑ Back to top | Tablatures and chords are parodies/interpretations of the original songs. You may use it for private study, scholarship, research or language learning purposes only
© 2014 AZChords.com Contact us | Privacy policy | DMCA | Add/correct tabs | Request tabs | Top 50 tabs