» » »

Fall Out Boy, Whats This Tabs (ver.1)

Artists:  A B C D E F G H I J K L M N O P Q R S T U V W X Y Z # 

Whats This Tabs (ver.1)

Fall Out Boy Tabs
 Rating:
4/5 (4 votes)
Whats This lessons Tabs too difficult? Try these video lessons and learn fast
1
                E---------------6------------------------------------------------------|
B6---6--------6-----6-------8--------10--------------------------------|
G--7---7----------------7-------9-------10-8---------------------------|
D----------8---------------------------------10------------------------|
A----------------------------------------------------------------------|
E----------------------------------------------------------------------|


[electric guitar part of intro]
E------------------------------------------------------------------------|
B---------------8-10-11-10------------------8-10--------------8-10-11-10-|
G-7-10-7-10-7-10------------6-9--6-9--6-9-10----10---7-10-7-10-----------|
D------------------------------------------------------------------------|
A------------------------------------------------------------------------|
E------------------------------------------------------------------------|

[cont.]
E------------------10--------------------------------------------------|
B---10--10--8----------------------------------------------------------|
G-10--10--10--9-7------------------------------------------------------|
D----------------------------------------------------------------------|
A----------------------------------------------------------------------|
E----------------------------------------------------------------------|


im too lazy too write out the rest of the bar chords they play but here's what you were 
for isn't it?
            
Submit corrections

comments powered by Disqus
↑ Back to top | Fall Out Boy Tabs for Whats This. Lyrics for acoustic guitar and electric guitar. 1 Tablatures and chords are parodies/interpretations of the original songs. You may use it for private study, scholarship, research or language learning purposes only