» » »

Fall Out Boy, The Shipped Gold Standard Tabs (ver.1)

Artists:  A B C D E F G H I J K L M N O P Q R S T U V W X Y Z # 

The Shipped Gold Standard Tabs (ver.1)

Fall Out Boy Tabs
 Rating:
4/5 (4 votes)
The Shipped Gold Standard lessons Tabs too difficult? Try these video lessons and learn fast
1
                The (Shipped) Gold Standard
Fall Out Boy
Folie A Deux


Tuned in Drop D

INTRO
Guitar2
e|------------------------------------------------------------------|
B|------------------------------------------------------------------|
G|---------6---------------8---------------11------11------119-8----|
D|-4-4-4-4-----4---6-6-6-6-----6------------------------------------|
A|---------------------------------7-7-7-7-----7-------7------------|
D|------------------------------------------------------------------|

VERSE 1
Guitar1
e|------------------|
B|------------------|
G|------------------|
D|-6---6---6---62---| x10
A|-6---6---6---62---|
D|-6---6---6---62---|
   ^   ^   ^   ^~
Guitar2
REST x6
e|------------------|
B|------------------|
G|-4444444-444-444--|
D|-4444444-444-444--| x4
A|------------------|
D|------------------|
   
PRECHORUS
Guitar1 (soft)  Pt1                                 Pt2
e|---------------------------------|--------------------------------|
B|---------------------------------|--------------------------------|
G|---------------------------------|--------------------------------|
D|-4444444466666666222222222222----|-44444444666666662---------xxxx-|
A|-4444444466666666222222222222----|-44444444666666662---------xxxx-|
D|-4444444466666666222222222222----|-44444444666666662---------xxxx-|
                                                     ^
Guitar2
Part 1
e|------------------------------------------------------------------|
B|------------------------------------------------------------------|
G|-6-6-6-6-6-6-6-6-8-8-8-8-8-8-8-8---------11------11------119-8----|
D|-4-4-4-4-4-4-4-4-6-6-6-6-6-6-6-6-9-9-9-9-9-9-9-9-9-9-9-9----------|
A|---------------------------------7-7-7-7-7-7-7-7-7-7-7-7----------|
D|------------------------------------------------------------------|
Part 2
e|------------------------------------------------------------------|
B|------------------------------------(121212)(121212)(121212)------|
G|-6-6-6-6-6-6-6-6-8-8-8-8-8-8-8-8-----111111--111111--111111xxxxxx-|
D|-4-4-4-4-4-4-4-4-6-6-6-6-6-6-6-6-9---9-9-9---9-9-9---9-9-9-xxxxxx-|
A|---------------------------------7--------------------------------|
D|------------------------------------------------------------------|
                                   ^ 

CHORUS
Both Guitar
e|----------------------------------|----------------------------------|
B|----------------------------------|----------------------------------|
G|-----------------44444444---------|-----------------44444444444443---|
D|-66666666222222224444444444444444-|-666666662222222244444444444443---|
A|-66666666222222222222222244444444-|-666666662222222222222222222221---|
D|-6666666622222222--------44444444-|-6666666622222222-----------------|

e|----------------------------------|----------------------------------|
B|----------------------------------|----------------------------------|
G|-----------------44444444---------|-----------------4--4--4--4--43---|
D|-66666666222222224444444444444444-|-66666666222222224--4--4--4--43---|
A|-66666666222222222222222244444444-|-66666666222222222--2--2--2--21---|
D|-6666666622222222--------44444444-|-6666666622222222-----------------|
   
VERSE 2
Same as 1

PRECHORUS
Same

Chorus
Same
   
BRIDGE
Guitar1
e|------------------|
B|------------------|
G|------------------|
D|-6-xxx-xxx-xxxx2--| x4
A|-6-xxx-xxx-xxxx2--|
D|-6-xxx-xxx-xxxx2--|   

Guitar2 +++ +++ ++++
e|--(777-777-7777)--|
B|---777-777-7777---|
G|---777-777-7777---|
D|-6-+++-+++-++++2--| x10
A|-6-------------2--|
D|-6-------------2--|
   
PRECHORUS
Guitar1
Prechorus Pt 1 x3 clean, Pt 2 clean, distorted scratches at end

Guitar2
Prechorus Pt1 x 3, Then
e|------------------------------------------------------------------|
B|------------------------------------(12)----(12)------------------|
G|-6-6-6-6-6-6-6-6-8-8-8-8-8-8-8-8-----11------11------------xxxxxx-|
D|-4-4-4-4-4-4-4-4-6-6-6-6-6-6-6-6-9---9-------9-------------xxxxxx-|
A|---------------------------------7--------------------------------|
D|------------------------------------------------------------------|   
                                   ^
CHORUS
Same, but last phrase repeated at end

OUTRO
Guitar1
Verse x2

 / - slide up
 \ - slide down
 h - hammer-on
 p - pull-off
 . - palm-mute
 x - left hand mute
 ^ - accented stop
 + - harmonic
(5)- ghost note
 ~ - let it ring
 t - triplets
            
Submit corrections

comments powered by Disqus
↑ Back to top | Fall Out Boy Tabs for The Shipped Gold Standard. Lyrics for acoustic guitar and electric guitar. 1 Tablatures and chords are parodies/interpretations of the original songs. You may use it for private study, scholarship, research or language learning purposes only