» » »

Start Today Bass tabs (ver.1)

Artists:  A B C D E F G H I J K L M N O P Q R S T U V W X Y Z # 

Start Today Bass tabs (ver.1)

Fall Out Boy
Rating:
0/5 (0 votes)

Hard to play? Try these video lessons and learn fast.
                Intro
G-------------------------|--------------|
D-------------------------|--------------|
A-4----44------44------44-|--short-pause-|
D--0-0---0-0-0---0-0-0----|--------------|

G-----------------------------------|
D-----------------------------------|
A-4----44------44------44------020--|
D--0-0---0-0-0---0-0-0------242---4-|

Verse
G----------------------------------|
D----------------------------------|
A------------------4-4-4-44-444444-| x2
D-4-4-4-47-2222222-----------------|

G---------------------------------|
D---------------------------------|
A------------------4-4-4-44--4--4-|
D-4-4-4-47-2222222----------------|

Chorus
G-----------------|
D-----------------|
A-2-2-2-2\4-4-4-4-|
D-----------------|

G----------------|
D----------------|
A-2-2-2-2---0--0-|
D----------------|

G-----------------|
D-----------------|
A-2-2-2-2\4-4-4-4-|
D-----------------|

G-----------------------|
D-----------------------|
A-0--0--0--0--0-0-2-2-2-|
D-----------------------|

Post Chorus
G----------------------------------|
D----------------------------------|
A------------------4-4-4-44-444444-|
D-4-4-4-47-2222222-----------------|

G---------------------------|
D---------------------------|
A------------------4-4-4-44-|
D-4-4-4-47-2222222----------|

Verse x4

Chorus x1


Bridge x2
G------------------|
D------------------|
A------------------|
D-4444-77-22-22-22-|

G---------------|
D---------------|
A---------------|
D-4444-77-22-22-|

G------------------|
D------------------|
A------------------|
D-4444-77-22-22-22-|

G------------|
D------------|
A------------|
D-4444-77-22-|

Verse x1

Final Chorus
G-----------------|
D-----------------|
A-2-2-2-2\4-4-4-4-|
D-----------------|

G---------------|
D---------------|
A-2-2-2-2--0--0-|
D---------------|

G-----------------|
D-----------------|
A-2-2-2-2\4-4-4-4-|
D-----------------|

G-----------------------|
D-----------------------|
A-0--0--0--0--0-0-2-2-2-|
D-----------------------|

Ending
G------------|
D------------|
A------------|
D-4444-77-22-|
            
Hard to play? Try these video lessons and learn fast. | Correct




comments powered by Disqus
↑ Back to top | Tablatures and chords are parodies/interpretations of the original songs. You may use it for private study, scholarship, research or language learning purposes only