>
 >
Sending Postcards From A Plane Crash 1

Sending Postcards From A Plane Crash 1 Guitar Tabs

Fall Out Boy - Sending Postcards From A Plane Crash 1 chords, tabs, tablatures, lyrics

Guitar lessons | Add/correct | Request | Top 50 tabs Artists:  A B C D E F G H I J K L M N O P Q R S T U V W X Y Z 0-9

Sending Postcards From A Plane Crash 1 Guitar Tabs – Fall Out Boy

CD, Sheet music, Poster

Do you like Sending Postcards From A Plane Crash 1? Share with your friends now
Bass TabsChordsTabsTabs v2
Album:Take This To Your Grave

Standard Tuning

Intro-Pt. 1
~Guitar 1~
e:-----------|
B:-----------|
G:-----------|
D:--2-2------|
A:--2-2------|
E:--0-0------|

~Guitar 2~
e:--------------------|
B:--------------------|
G:--9-9--11-11-13-13--|
D:--x-x--x--x--x--x---|
A:--7-7--9--9--11-11--|
E:--------------------|

Intro-Pt. 2
~Guitar 1~
e:---------------------------------------|
B:---------------------------------------|
G:---------------------------------------|
D:--2-2-2-2-2-2-2-2--4-4-4-4--6-6-6-6----|
A:--2-2-2-2-2-2-2-2--4-4-4-4--6-6-6-6----|
E:--0-0-0-0-0-0-0-0--2-2-2-2--4-4-4-4----|

~Guitar 2~
e:------------------------------------------------|
B:------------------------------------------------|
G:--16~--9-9--11-11--9-9--11-11--9-9--11-11--9-9--|\
D:--x----x-x---x--x--x-x---x--x--x-x--x--x---x-x--| \
A:--14~--7-7---9--9--7-7---9--9--7-7--9--9---7-7--|  \
E:------------------------------------------------|   \
                                                       x2
e:------------------------------------------------|   /
B:------------------------------------------------|  / 
G:--13~--9-9--11-11--9-9--11-11--9-9--11-11--9-9--| /
D:--x----x-x---x--x--x-x---x--x--x-x--x--x---x-x--|/
A:--11~--7-7---9--9--7-7---9--9--7-7--9--9---7-7--| <--2nd time let last note  ring
E:------------------------------------------------|

Verse 1-pt.1
~Guitar 1 & 2~
e:----------------------------|
B:----------------------------|
G:----------------------------|
D:--2-2----4-4----6-6----7-7--|
A:--2-2----4-4----6-6----7-7--| x2
E:--0-0----2-2----4-4----5-5--|

Verse 1-pt.2
~Guitar 1~
e:----------------------------------------------------------------------|
B:----------------------------------------------------------------------|x2
G:----------------------------------------------------------------------|
D:--2-2-2-2-2-2-2-2--4-4-4-4-4-4-4-4--6-6-6-6-6-6-6-6--7-7-7-7-7-7-7-7--|last time
A:--2-2-2-2-2-2-2-2--4-4-4-4-4-4-4-4--6-6-6-6-6-6-6-6--7-7-7-7-7-7-7-7--|play the 
E:--0-0-0-0-0-0-0-0--2-2-2-2-2-2-2-2--4-4-4-4-4-4-4-4--5-5-5-5-5-5-5-5--|5/7/7 open
 PM ***************  ***************  ***************  ***************

~Guitar 2~
e:------------------|
B:------------------|
G:----1-----1h2p1---| x4
D:--2---2--------2--|
A:------------------|
E:------------------|
 PM * * *

Pre-Chorus
~Guitar 1~
e:------------------------------------------------------------------------------|
B:------------------------------------------------------------------------------|
G:------------------------------------------------------------------------------|
D:--7-7-7-7-7-7-7-7-6-4-4-4-4-4-4-4-4-6-7-7-7-7-7-7-7-7--2-2-2-2--4-4-4-4--6-6--|
A:--7-7-7-7-7-7-7-7-6-4-4-4-4-4-4-4-4-6-7-7-7-7-7-7-7-7--2-2-2-2--4-4-4-4--6-6--|x1.7
E:--5-5-5-5-5-5-5-5-4-2-2-2-2-2-2-2-2-4-5-5-5-5-5-5-5-5--0-0-0-0--2-2-2-2--4-4--|

~Guitar 2~
e:---------------------------------------------------------------------|
B:---------------------------------------------------------------------|
G:--9-9-9-9-9-9-9-9-9-9-9-9-11-13-13-13-13-13-13-13-13-13-13-13-13-14--|
D:--x-x-x-x-x-x-x-x-x-x-x-x-x--x--x--x--x--x--x--x--x--x--x--x--x--x---|
A:--7-7-7-7-7-7-7-7-7-7-7-7-9--11-11-11-11-11-11-11-11-11-11-11-11-12--|
E:---------------------------------------------------------------------|

e:-----------------------------------|
B:-----------------------------------|
G:--13-13-11-9-9-9-9-9-9-9-9-9-9-9/--|
D:--x--x--x--x-x-x-x-x-x-x-x-x-x-x/--| x2
A:--11-11-9--7-7-7-7-7-7-7-7-7-7-7/--|
E:-----------------------------------|

Chorus
~Guitar 1 & 2~
e:--------------------------------------------------|
B:--------------------------------------------------|
G:--------------------------------------------------|
D:--2-2--4-2-1---4-4--4-2-1---6-6--4-2-1---6-6-7-7--| x4
A:--2-2----------4-4----------6-6----------6-6-7-7--|
E:--0-0----------2-2----------4-4----------4-4-5-5--|

Verse 2
~Guitar 1 & 2~
e:-------------------------|
B:-------------------------|
G:---------4~--2~--8~--9~--|
D:--2~~~---4~--2~--x---x---|
A:--2~~~---2~--0~--6~--7~--|
E:--0~~~-------------------|

Bridge
~Guitar 1~
e:----------------------------------------------------------------------|
B:----------------------------------------------------------------------|
G:----------------------------------------------------------------------|
D:--4-4-4-4-4-4-4-4--2-2-2-2-2-2-2-2--7-7-7-7-7-7-7-7--2-2-2-2-2-2-2-2--|
A:--4-4-4-4-4-4-4-4--2-2-2-2-2-2-2-2--7-7-7-7-7-7-7-7--2-2-2-2-2-2-2-2--|
E:--2-2-2-2-2-2-2-2--0-0-0-0-0-0-0-0--5-5-5-5-5-5-5-5--0-0-0-0-0-0-0-0--|

e:-----------------------------------------------------|
B:-----------------------------------------------------|
G:-----------------------------------------------------|
D:--4-4-4-4-4-4-4-4--6-6-6-6-6-6-6-6--7-7-7-7-7-7-7-7--|
A:--4-4-4-4-4-4-4-4--6-6-6-6-6-6-6-6--7-7-7-7-7-7-7-7--|
E:--2-2-2-2-2-2-2-2--4-4-4-4-4-4-4-4--5-5-5-5-5-5-5-5--|

~Guitar 2~
(Refer to the intro. It's way up there. ^) 

Solo
~Guitar 1~
e:----------|
B:----------|
G:----------|
D:--2--2-2--|
A:--2--2-2--|
E:--0--0-0--|
 PM *  * *

~Guitar 2~
e:--------------------------------|
B:--------------------------------|
G:1/9p8---------1-2---------------| x2
D:------9-6~--4-----2~--2-1-2-----|
A:----------------------------2~--|
E:--------------------------------|

Post-Chorus
~Guitar 1 & 2~
e:----------------------------------------------------------------|
B:----------------------------------------------------------------|
G:----------------------------------------------------------------|
D:--2--2-2-2-2-2-2-2-2--4--4-4-4-4-4-4-4-4--6-7--7-7-7-7-7-7-7-7--|
A:--2--2-2-2-2-2-2-2-2--4--4-4-4-4-4-4-4-4--6-7--7-7-7-7-7-7-7-7--|
E:--0--0-0-0-0-0-0-0-0--2--2-2-2-2-2-2-2-2--4-5--5-5-5-5-5-5-5-5--|
 PM    * * * * * * * *     * * * * * * * *       * * * * * * * *  

E:-----------------------------|
B:-----------------------------|
G:-----------------------------|
D:--2-2-2-2--4-4-4-4--6-6-6-6--|
A:--2-2-2-2--4-4-4-4--6-6-6-6--|
E:--0-0-0-0--2-2-2-2--4-4-4-4--|





Comments


Popular Fall Out Boy tabs & chords
Short Fast And Loud Bass Tabs
Thnks Fr Th Mmrs Bass Tabs
Lullabye Chords
Miss Missing You Chords
Calm Before The Storm Tabs
Its Not A Side Effect Of The Cocaine I Am Thinking It Must Be Love Tabs
My Songs Know What You Did In The Dark Light Em Up 1 Tabs
The Pros And Cons Of Breathing Tabs
Thnks Fr Th Mmrs 2 Tabs
Fame Infamy Ukulele


Song lyrics



↑ Back to top | Tablatures and chords are parodies/interpretations of the original songs. You may use it for private study, scholarship, research or language learning purposes only
© 2014 AZChords.com Contact us | Privacy policy | DMCA | Add/correct tabs | Request tabs | Top 50 tabs