» » »

Fall Out Boy, Reinventing The Wheel To Run Myself Over Tabs (ver.1)

Artists:  A B C D E F G H I J K L M N O P Q R S T U V W X Y Z # 

Reinventing The Wheel To Run Myself Over Tabs (ver.1)

Fall Out Boy Tabs
Rating:
0/5 (0 votes)
Reinventing The Wheel To Run Myself Over lessons Tabs too difficult? Try these video lessons and learn fast
                Tuning:Standard

h: hammer on 
p: pull off 
*:palm mute

Intro:
e|------------------------------------------------------------|
B|------------------------------------------------------------|
G|-44-422-24-------888888-999999-131313131313-161616161616----|
D|-44-422-24-------xxxxxx-xxxxxx--x-x-x-x-x-x--x-x-x-x-x-x----|
A|-22-200-02-------666666-777777-111111111111-141414141414----|
E|------------------------------------------------------------|

Verse:
e|------------------------------------------------------------|
B|------------------------------------------------------------|
G|-44444444-66666666------------------------------------------|x4
D|-44444444-66666666-2222222222222222-------------------------|
A|-22222222-44444444-2222222222222222-------------------------|
E|-------------------0000000000000000-------------------------|

Pre Chorus:
e|------------------------------------------------------------|
B|------------------------------------------------------------|
G|-4-6--------------------------------------------------------|
D|-4-6-44444444-22222222-44444444-22222222-44444444-2-2-2-2---|
A|-2-4-44444444-22222222-44444444-22222222-44444444-2-2-2-2---|
E|-----22222222-00000000-22222222-00000000-22222222-0-0-0-0---|
                          *******  *******
Chorus: Guitar 1
e|------------------------------------------------------------|
B|----4h5p4----4h5p4----4h5p4----4h5p4------------------------|
G|-4-4-----4-44-----4-44-----4-44-----4-----------------------|x4
D|------------------------------------------------------------|
A|------------------------------------------------------------|
E|------------------------------------------------------------|

Chorus: Guitar 2
e|------------------------------------------------------------|
B|------------------------------------------------------------|
G|-4-xxxx-6-xxxx----------------------------------------------|x4
D|-4-xxxx-6-xxxx-2-xxxx--66-44--------------------------------|
A|-2-xxxx-4-xxxx-2-xxxx--66-44--------------------------------|
E|---------------0-xxxx--44-22--------------------------------|

Bridge:
e|------------------------------------------------------------|
B|------------------------------------------------------------|
G|-424-xxxx-6-xxxx--------------------------------------------|
D|-424-xxxx-6-xxxx-2-xxxx-66-44-------------------------------|
A|-202-xxxx-4-xxxx-2-xxxx-66-44-------------------------------|
E|-----------------0-xxxx-44-22-------------------------------|

Bridge Cont. 
e|------------------------------------------------------------|
B|------------------------------------------------------------|
G|-4-xxxx-6-xxxx----------------------------------------------|
D|-4-xxxx-6-xxxx-22222-66-44----------------------------------|
A|-2-xxxx-4-xxxx-22222-66-44----------------------------------|
E|---------------00000-44-22----------------------------------|

3rd Chorus:
e|------------------------------------------------------------|
B|------------------------------------------------------------|
G|-44444444-66666666------------------------------------------|x4
D|-44444444-66666666-22222222-66-44---------------------------|
A|-22222222-44444444-22222222-66-44---------------------------|
E|-------------------00000000-44-22---------------------------|

This comes in the end 
e|------------------------------------------------------------|
B|----4h5p4----4h5p4----4h5p4----4h5p4------------------------|
G|-4-4-----4-44-----4-44-----4-44-----4-----------------------|x2
D|------------------------------------------------------------|
A|------------------------------------------------------------|
E|------------------------------------------------------------|

End with:
e|------------------------------------------------------------|
B|------------------------------------------------------------|
G|-------4----------------------------------------------------|
D|-2--4--4--2-------------------------------------------------|
A|-2--4--2--2-------------------------------------------------|
E|-0--2-----0-------------------------------------------------|

Order

intro
verse
pre chorus
chorus
verse
prechorus
chorus
bridge
3rd chorus
end part
            

comments powered by Disqus
↑ Back to top | Fall Out Boy Tabs for Reinventing The Wheel To Run Myself Over. Lyrics for acoustic guitar and electric guitar. Tablatures and chords are parodies/interpretations of the original songs. You may use it for private study, scholarship, research or language learning purposes only