» » »

Parker Lewis Can't Lose Tabs (ver.1)

Artists:  A B C D E F G H I J K L M N O P Q R S T U V W X Y Z # 

Parker Lewis Can't Lose Tabs (ver.1)

Fall Out Boy
Rating:
0/5 (0 votes)

Hard to play? Try these video lessons and learn fast.
                Tuning: Normal

911 was a scam:

Riff 1:
E------------------------------------------------------------------------------------------------|
B------------------------------------------------------------------------------------------------|
G-----5-4-------5-4------------7------------------7------------------5------------5-4-------5-4--|
D------------------------------------------------------------------------------------------------|
A-333------333---------55-5-55--- x's 4---77-7-77--- x's 4---55-5-55-- x's 2--333------333-------|
E------------------------------------------------------------------------------------------------|
pm                     ..   ..            ..   ..            ..   ..

Riff 2:    Guitar 1                                                  Guitar 2
E---------------------------------------------------------------|-------------------|
B---------------------------------------------------------------|-------------------|
G---------------------------------------------------------------|--4-4-4-4h5 x's 10-|
D---------------------------------------------------------------|-------------------|
A---------------------------------------------------------------|-------------------|
E-0000000-333-44444444-666-777777777-4444444444 x's 2--4444444--|-------------------|
pm....... ... ........ ... ......... ..........        .......

Riff 3:
E------------------------------------------------------------------|
B------------------------------------------------------------------|
G------------------------------------------------------------------|
D---------------------------------------------------------9-7-9-10-|
A-6666666-888-999999999-888---------6666666-888-999999999-7-5-7-8--|
E-4444444-666-777777777-666 x's 2---4444444-666-777777777----------|

Riff 4:
E---------------------------------------|
B---------------------------------------|
G---------------------------------------|
D---------------99--9-7-77-7/9--------9-|
A-55-6-6/8-8--8-77--7-5-55-5/7--------7-|
E-33-4-4/6-6--6--------------- x's 3----|

Riff 5:
E--------------------------------------------------------|
B--------------------------------------------------------|
G----------7----------------5----------------------------|
D--------------------------------------------------------|
A-55-5-55--- x's 4--55-5-55-- x's 4----------------------|
E----------------------------          Whole thing x's 2-|
pm..   ..           ..   ..

Riff 2

Riff 3

Riff 4

Riff 6:
E---------------------------------------------------------------------------------------|
B---------------------------------------------------------------------------------------|
G---------------------------------------------------------------------------------------|
D-9-7-9-10---------------9999--7777-------------------------9999999-7777777-------------|
A-7-5-7-8----6666--9999--7777--5555---------6666666-9999999-7777777-5555555--------6666-|
E------------4444--7777------------- x's 4--4444444-7777777---------------- x's 2--4444-|
            
Hard to play? Try these video lessons and learn fast. | Correct




comments powered by Disqus
↑ Back to top | Tablatures and chords are parodies/interpretations of the original songs. You may use it for private study, scholarship, research or language learning purposes only