» » »

My Songs Know What You Did In The Dark Light Em Up Tabs (ver.3)

Artists:  A B C D E F G H I J K L M N O P Q R S T U V W X Y Z # 

My Songs Know What You Did In The Dark Light Em Up Tabs (ver.3)

Fall Out Boy
Rating:
0/5 (0 votes)

Hard to play? Try these video lessons and learn fast.
                New FOB SONG!!!


here my tab for this one


verse : 

guitar 2( 0:12) intro : 

e|-----------------------------------------------|
B|-----------------------------------------------|   lisent to the song
G|----s--7--7--7v-7v--7v-7v---7v--7v-------------|
D|-----------------------------------------------|
A|-----------------------------------------------|
D|-----------------------------------------------|

(0:20)

Guitar 1

e|---------------------------------------------------------------|
B|---------------------------------------------------------------|
G|---------------------------------------------------------------|
D|---------------------------------------------------------------|
A|----5--5--5----------------5---5--5--5-------------------------|
D|----------------8--8--8-------------------8--8-8--8------------|


Guitar 2 (0:20)

e|-------------------------------------------|
B|-------------------------------------------|
G|----7--7------6--6-------------------------| lisent acorrding to the song
D|----x--x------8--8-------------------------|    
A|----5--5------8--8-------------------------|
D|----0--0------8--8-------------------------|


per Chours (0:43) :

e|-----------------------------------------------------|
B|-------------------------------7-7-7-7-7-7-7-7-------|
G|-----------------7-7-7-7-7-7---7-7-7-7-7-7-7-7-------|
D|----5-5-5-5-5----5-5-5-5-5-5---5-5-5-5-5-5-5-5-------|
A|-----------------------------------------------------|

Chours Is Just This Chords (guitar 1) 0:50:

e|------------------------|
B|------------------------|
G|---------6---5-----5----|
D|----0----8---3-----5----|
A|----0----8---3-----3----|
D|----0----8---3----------|

When The "Oh who" Part Come (1:03) Do this (Gutiar 2)

e|-------------------------------------------------------------------|
B|----18-15--18-15--18-15--18-15--18-15--18-15--18-15--18-15--18-15--|
G|-------------------------------------------------------------------|
D|-------------------------------------------------------------------|
A|-------------------------------------------------------------------|
D|-------------------------------------------------------------------|

e|-------------------------------------------------------------------|
B|---17-13--17-13--17-13--17-13--17-13--17-13--17-13--17-13--17-13---|
G|-------------------------------------------------------------------|
D|-------------------------------------------------------------------|
A|-------------------------------------------------------------------|
D|-------------------------------------------------------------------|


Reapet Pretty Much The Whole Things. Enjoy!!!!!

Please comment And Rate!!!!!
            
Hard to play? Try these video lessons and learn fast. | Correct




comments powered by Disqus
↑ Back to top | Tablatures and chords are parodies/interpretations of the original songs. You may use it for private study, scholarship, research or language learning purposes only