>
 >
Music Or The Misery 1

Music Or The Misery 1 Guitar Tabs

Fall Out Boy - Music Or The Misery 1 chords, tabs, tablatures, lyrics

Guitar lessons | Add/correct | Request | Top 50 tabs Artists:  A B C D E F G H I J K L M N O P Q R S T U V W X Y Z 0-9

Music Or The Misery 1 Guitar Tabs – Fall Out Boy

CD, Sheet music, Poster

Do you like Music Or The Misery 1? Share with your friends now
Bass TabsChordsTabsTabs v2Ukulele
Tuning: Drop D
Notes: Have fun, I think this is the most accurate tab yet. :)


e---------------------------------------------------------|
B------3----3----3----3----3-3------3-3-------------------|
G----333--222--333--222--33333---222222-------------------|  X2
D---------------------------------------------------------|
A---------------------------------------------------------|
D---------------------------------------------------------|
     **   **   **   **   ** *    *** *

The other part in the intro goes basically like this, Joe Plays this prolly.
e---------------------------------------------------------|
B---------------------------------------------------------|
G-----7-----5-----3-----2----3--3/--5--5------------------|  X2
D---55---533---311---100---11--1-/33-33-------------------|
A---------------------------------------------------------|
D---------------------------------------------------------|
    ***  ****  ****  ****  *** ** *******
e---------------------------------------------------------|
B----------------0/6------0/6-----------------------------|
G--------------------755------75-7535---------------------|  X2
D------888877775------------------------------------------|
A---------------------------------------------------------|
D---------------------------------------------------------|

e---------|e----------------------------------------------|
B---------|B----------------------------------------------|
G---------|G----------------------------------------------|
D-010-----|D----------------------------------------------|
A----31---|A----56531-------------------------------------|
D---------|D----------------------------------------------|
Version 1^  Version 2=Choose your preference.


e---------------------------------------------------------|
B---------------------------------------------------------|
G---------------------------------------------------------|  X2
D--11111111-33333333--55-55-55---010----------------------|
A--11111111-33333333--55-55-55------31--------------------|
D--11111111-33333333--55-55-55----------------------------|


e----------------------------------------------------XXXXXX|
B----------------------------------------------------XXXXXX|
G----------------------------------------------------XXXXXX|
D--11111111-33333333--55-11-33-55--111111-333333--1~-XXXXXX|
A--11111111-33333333--55-11-33-55--111111-333333--1~-XXXXXX|
D--11111111-33333333--55-11-11-55--111111-333333--1~-XXXXXX|
                                                     

Chorus:
e---------------------------------------------------------|
B---------------------------------------------------------|
G--33333333------------------------------------8\t/8------|
D--33333333--33333333--55555555--11111111------x\x/x------|  X2
A--11111111--33333333--55555555--11111111------6\8/6------|
D------------33333333--55555555--11111111---0-------------|
                                            *

Interlude:
e---------------------------------------------------------|
B---------------------------------------------------------|
G------tt------77------55------tt-------------------------|
D--55--xx--33--xx--11--xx--33--xx-------------------------|  X2
A--55--88--33--55--11--33--33--88-------------------------|
D--55------33------11------33-----------------------------|

'Breakdown'
e---------------------------------------------------------|
B---------------------------------------------------------|
G---------------------------------------------------------|
D--55-5-555--55-5-555--55-5-555-55-5-555----010-----------|
A--55-5-555--55-5-555--55-5-555-55-5-555-------31---------|
D--55-5-555--55-5-555--55-5-555-55-5-555------------------|
   ** * ***  ** * ***  ** * *** ** * ***


e---------------------------------------------------------|
B---------------------------------------------------------|
G---------------------------------------------------------|  X2
D--11111111-33333333--55-55-55---010----------------------|
A--11111111-33333333--55-55-55------31--------------------|
D--11111111-33333333--55-55-55----------------------------|


e----------------------------------------------------XXXXXX|
B----------------------------------------------------XXXXXX|
G----------------------------------------------------XXXXXX|
D--11111111-33333333--55-11-33-55--111111-333333--1~-XXXXXX|
A--11111111-33333333--55-11-33-55--111111-333333--1~-XXXXXX|
D--11111111-33333333--55-11-11-55--111111-333333--1~-XXXXXX|

Chorus:
e---------------------------------------------------------|
B---------------------------------------------------------|
G--33333333------------------------------------8\t/8------|
D--33333333--33333333--55555555--11111111------x\x/x------|  X2
A--11111111--33333333--55555555--11111111------6\8/6------|
D------------33333333--55555555--11111111---0-------------|
                                            *
Interlude:
e---------------------------------------------------------|
B---------------------------------------------------------|
G------tt------77------55------tt-------------------------|
D--55--xx--33--xx--11--xx--33--xx-------------------------|  X5
A--55--88--33--55--11--33--33--88-------------------------|
D--55------33------11------33-----------------------------|

Soon as the interlude starts for the second time Patrick hits a sustain:
e--------|
B--------|
G--------|
D--5~~---|
A--5~~---|
D--5~~---|

e---------------------------------------------------------|
B---------------------------------------------------------|
G---------------------------------------------------------|
D-1-11111111----bass----5--\1~---XXXXXXXX-----------------|
A-1-11111111----bass----5--\1~---XXXXXXXX-----------------|
D-1-11111111----bass----5--\1~---XXXXXXXX-----------------|
    ********               slide from bottom of neck 


Chorus:
e---------------------------------------------------------|
B---------------------------------------------------------|
G--33333333------------------------------------8\t/8------|
D--33333333--33333333--55555555--11111111------x\x/x------|  X2
A--11111111--33333333--55555555--11111111------6\8/6------|
D------------33333333--55555555--11111111---0-------------|
                                            *

Ending:
e---------------------------------------------------------|
B---------------------------------------------------------|
G------tt------77-----------------------------------------|
D--55--xx--33--xx--1~-------------------------------------|  
A--55--88--33--55--1~-------------------------------------|
D--55------33------1~-------------------------------------|

Thank you, hope you liked it.





Comments


Popular Fall Out Boy tabs & chords
Yule Shoot Your Eye Out Bass Tabs
Save Rock And Roll Chords
Saturday Drum Tabs
Disloyal Order Of Water Buffaloes 2 Tabs
Grand Theft Autumn Tabs
Ive Got All This Ringing In My Ears And None On My Fingers 1 Tabs
Me And You Tabs
Snitches And Talkers Get Stitches And Walkers Tabs
Death Valley Ukulele
Dont You Know Who I Think I Am Ukulele


Song lyrics



↑ Back to top | Tablatures and chords are parodies/interpretations of the original songs. You may use it for private study, scholarship, research or language learning purposes only
© 2014 AZChords.com Contact us | Privacy policy | DMCA | Add/correct tabs | Request tabs | Top 50 tabs