>
 >
Lake Effect Kid

Lake Effect Kid Bass Tabs

Fall Out Boy - Lake Effect Kid chords, tabs, tablatures, lyrics

Guitar lessons | Add/correct | Request | Top 50 tabs Artists:  A B C D E F G H I J K L M N O P Q R S T U V W X Y Z 0-9

Lake Effect Kid Bass Tabs – Fall Out Boy

CD, Sheet music, Poster

Do you like Lake Effect Kid? Share with your friends now
Bass TabsTabsTabs v2
-------------------------------------------------------------------------------
			     Lake Effect Kid - Fall Out Boy
-------------------------------------------------------------------------------


Tuning:dropped D (DADG)

Intro
G|---------------------------------------------------------------------------|
D|---------------------------------------------------------------------------|
A|---------------------------------------------------------------------------|
D|8--8-5/8-88-88-88-8-8~8~7-77-77-77-7-7~7~5-55-55-55-5-5~5~3-3-3-33-335577--|

Verse
G|---------------------------------------------------------------------------|
D|---------------------------------------------------------------------------|
A|--------------------------------------------------------(repeat x2)--------|
D|-888-8-88-88-8h(14)p777-7-77-77-7h(17)p555-5-55-55-5h(14)p333-3-33~335577--|

Pre-Chorus
G|---------------------------------------------------------------------------|
D|---------------------------------------------------------------------------|
A|-------------------5h7h8~8~~3h8p1------------------------------------------|
D|-8~7~(12)~(10)~8~7~--------------------------------------------------------|

Chorus
G|---------------------------------------------------------------------------|
D|---------------------------------------------------------------------------|
A|---------------3-33-33-3-3~3~--------------------------8-------------------|
D|-3-33-33-3-3~3~--------------7-77-77-77p5h888-8-88-88-8-8~-------8~--------|

Verse
G|---------------------------------------------------------------------------|
D|---------------------------------------------------------------------------|
A|--------------------------------------------------------(repeat x2)--------|
D|-5h888-8-88-88-8h(14)p777-7-77-77-7h(17)p555-5-55-55-5h(14)p333-3-33~335577|

Pre-Chorus
G|---------------------------------------------------------------------------|
D|---------------------------------------------------------------------------|
A|-------------------5h7h8~8~~3h8p1~3h8p1------------------------------------|
D|-8~7~(12)~(10)~8~7~--------------------------------------------------------|

Chorus
G|---------------------------------------------------------------------------|
D|---------------------------------------------------------------------------|
A|---------------3-33-33-3-3~3~--------------------------8-------------8\3---|
D|-3-33-33-3-3~3~--------------7-77-77-77p5h888-8-88-88-8-888-8-88-88-8------|

Solo(s)
G|---------------------------------------------------------------------------|
D|-------------------------323-23~-------------------------------------------|
A|-5350---------5~0--5~--01---0-----------33333333---------------------------|
D|-----5-7~76530---53--35---------5~5~5~5~-----------------------------------|

Break for guitar and bass, then

Chorus
G|---------------------------------------------------------------------------|
D|---------------------------------------------------------------------------|
A|--------------8~8~--------------3-33-33-3-3~3~-----------------------------|
D|-5h888-8-88-88----3-33-33-3-3~3~--------------7-77-77-77p5h888~------------|

Verse
G|---------------------------------------------------------------------------|
D|---------------------------------------------------------------------------|
A|---------------------------------------------------------------------------|
D|-8~88~88~8~8~777~7~77~77~7~7~555~5~55~55~5~5~333~3~33~335577---------------|

Ending
G|---------------------------------------------------------------------------|
D|---------------------------------------------------------------------------|
A|---------------------------------------------------------------------------|
D|-888~8~88~88~8~8~777~7~77~77~7~7~555~5~55~55~5~5~\3~3/(15)~~~--------------|

| /  slide up
| \  slide down
| h  hammer-on
| p  pull-off
| ~  vibrato
| +  harmonic
| x  Mute note
===============================================================================





Comments


Popular Fall Out Boy tabs & chords
Dance Dance 5 Bass Tabs
Dead On Arrival 1 Bass Tabs
Dont You Know Who I Think I Am Chords
Sugar Were Goin Down 1 Chords
What A Catch Donnie 1 Chords
Golden 1 Tabs
What A Catch Donnie Tabs
Xo 1 Tabs
Honorable Mention Ukulele
Thnks Fr Th Mmrs 2 Ukulele


Song lyrics



↑ Back to top | Tablatures and chords are parodies/interpretations of the original songs. You may use it for private study, scholarship, research or language learning purposes only
© 2014 AZChords.com Contact us | Privacy policy | DMCA | Add/correct tabs | Request tabs | Top 50 tabs