» » »

Fall Out Boy, I Slept With Someone In Fall Out Boy And All I Got Was This Stupid Song Written About Me Tabs (ver.5)

Artists:  A B C D E F G H I J K L M N O P Q R S T U V W X Y Z # 

I Slept With Someone In Fall Out Boy And All I Got Was This Stupid Song Written About Me Tabs (ver.5)

Fall Out Boy Tabs
 Rating:
4/5 (4 votes)
I Slept With Someone In Fall Out Boy And All I Got Was This Stupid Song Written About Me lessons Tabs too difficult? Try these video lessons and learn fast
1
                Track #: 10

This was requested by someone after my 'Dance, Dance' tab.
Enjoy!

Intro:
(0:00)
e|--------------|
B|--------------|
G|--------------|
D|--2~--5~~--9--|
A|--2~--5~~--9--|
D|--2~--5~~--9--|

Verse:
(0:03)
e|----------------------------------|
B|----------------------------------|
G|-4-4-4-4-4---------7-x-7-7--------|
D|-4-4-4-4-4-2-4-2-0-7-x-7-7--2-x-2-|
A|-2-2-2-2-2---------5-x-5-5--2-x-2-|
D|----------------------------2-x-2-|

 "I found the cure to growing older..."

(0:22)
e|---------|---------|
B|---------|---------|
G|-4-------|-2-4-----|
D|-4-0-5-0-|-2-4-5-0-|
A|-2-0-5-0-|-0-2-5-0-|
E|---0-5-0-|-----5-0-|

(0:32)
e|-----------------------------|
B|-----------------------------|
G|-4-4-4-4-4--7-x-7-7----------|
D|-4-4-4-4-4--7-x-7-7--2-x-2-2-|
A|-2-2-2-2-2--5-x-5-5--2-x-2-2-|
D|---------------------2-x-2-2-|

 "I'm the first kid to write of hearts.."

Chorus:
(0:51)
e|---------|-------------------------------------|---------------------------------|
B|---------|-------------------------------------|---------------------------------|
G|---------|-4-4-4-4-----------------------------|-4-4-4-4-2-2-2-2-----------------|
D|-2~~-5~--|-4-4-4-4-0-0-0-0-2-2-2-2--4--5-5-5-5-|-4-4-4-4-2-2-2-2-5-x-x-x-0-x-x-x-|
A|-2~~-5~--|-2-2-2-2-0-0-0-0-2-2-2-2--4--5-5-5-5-|-2-2-2-2-0-0-0-0-5-x-x-x-0-x-x-x-|
D|-2~~-5~--|---------0-0-0-0-2-2-2-2--4--5-5-5-5-|-----------------5-x-x-x-0-x-x-x-|

 "So douse yourself in cheap perfume..."

(1:13)
e|---------|---------|
B|---------|---------|
G|-4-------|-2-4-----|
D|-4-0-5-0-|-2-4-5-0-|
A|-2-0-5-0-|-0-2-5-0-|
D|---0-5-0-|-----5-0-|

Verse:
(1:23)
e|-----------------------------|
B|-----------------------------|
G|-4-4-4-4-4--7-x-7-7----------|
D|-4-4-4-4-4--7-x-7-7--2-x-2-2-|
A|-2-2-2-2-2--5-x-5-5--2-x-2-2-|
D|---------------------2-x-2-2-|

 "Find a safe place, brace yourself, bite your lip..."

(1:42-2:01)
e|----------------------------|
B|----------------------------|
G|-4--------------------------|
D|-4-x-x--0-x-x--5-x-x--2-x-x-|
A|-2-x-x--0-x-x--5-x-x--2-x-x-|
D|---x-x--0-x-x--5-x-x--2-x-x-|

 "They call kids like us vicious and carved out of stone.."

Chorus:
(2:01)
e|---------|-------------------------------------|---------------------------------|
B|---------|-------------------------------------|---------------------------------|
G|---------|-4-4-4-4-----------------------------|-4-4-4-4-2-2-2-2-----------------|
D|-2~~-5~--|-4-4-4-4-0-0-0-0-2-2-2-2--4--5-5-5-5-|-4-4-4-4-2-2-2-2-5-x-x-x-0-x-x-x-|
A|-2~~-5~--|-2-2-2-2-0-0-0-0-2-2-2-2--4--5-5-5-5-|-2-2-2-2-0-0-0-0-5-x-x-x-0-x-x-x-|
D|-2~~-5~--|---------0-0-0-0-2-2-2-2--4--5-5-5-5-|-----------------5-x-x-x-0-x-x-x-|

 "So douse yourself in cheap perfume..."


Bridge:
(2:24)
e|---------------|
B|---------------|
G|---------------|
D|--2~--5~~--9-9-|
A|--2~--5~~--9-9-|
D|--2~--5~~--9-9-|

e|---------------------------------|
B|---------------------------------|
G|---------------------------------|
D|-9-9-9-9-9-9-9-9-9-9-9-9-9-9-9-9-|
A|-9-9-9-9-9-9-9-9-9-9-9-9-9-9-9-9-|
D|-9-9-9-9-9-9-9-9-9-9-9-9-9-9-9-9-|
PM ...........................

 "Someone old, someone new..."

e|---------------------------------|
B|---------------------------------|
G|---------------------------------|
D|-9-9-9-9-9-9-9-9-9-9-9-9-9-9-9-9-|
A|-9-9-9-9-9-9-9-9-9-9-9-9-9-9-9-9-|
D|-9-9-9-9-9-9-9-9-9-9-9-9-9-9-9-9-|
PM ...........................

 "Feeling borrowed, always blue.."


(2:46)
e|---------------------|      |---------------------|
B|---------------------|      |---------------------|
G|-4-------------------|      |---------------------|
D|-4-x--0-x--5-x--2-x--|  or  |-9-x--0-x--5-x--2-x--|
A|-2-x--0-x--5-x--2-x--|      |-9-x--0-x--5-x--2-x--|
D|---x--0-x--5-x--2-x--|      |-9-x--0-x--5-x--2-x--|

 "I found the cure to growing older.."

Chorus:
(3:05)
e|---------|-------------------------------------|---------------------------------|
B|---------|-------------------------------------|---------------------------------|
G|---------|-4-4-4-4-----------------------------|-4-4-4-4-2-2-2-2-----------------|
D|-2~~-5~--|-4-4-4-4-0-0-0-0-2-2-2-2--4--5-5-5-5-|-4-4-4-4-2-2-2-2-5-x-x-x-0-x-x-x-|
A|-2~~-5~--|-2-2-2-2-0-0-0-0-2-2-2-2--4--5-5-5-5-|-2-2-2-2-0-0-0-0-5-x-x-x-0-x-x-x-|
D|-2~~-5~--|---------0-0-0-0-2-2-2-2--4--5-5-5-5-|-----------------5-x-x-x-0-x-x-x-|

 "So douse yourself in cheap perfume."

End:
(3:25)
e|------|
B|------|
G|------|
D|-5\---|
A|-5\---|
D|-5\---|

 "Can't cover it up."

*Allow feedback for sound after slide.*


Questions? comments? requests?: Email
            
Submit corrections

comments powered by Disqus
↑ Back to top | Fall Out Boy Tabs for I Slept With Someone In Fall Out Boy And All I Got Was This Stupid Song Written About Me. Lyrics for acoustic guitar and electric guitar. 1 Tablatures and chords are parodies/interpretations of the original songs. You may use it for private study, scholarship, research or language learning purposes only