» » »

Fall Out Boy, I Slept With Someone In Fall Out Boy And All I Got Was This Stupid Song Written About Me Tabs (ver.2)

Artists:  A B C D E F G H I J K L M N O P Q R S T U V W X Y Z # 

I Slept With Someone In Fall Out Boy And All I Got Was This Stupid Song Written About Me Tabs (ver.2)

Fall Out Boy Tabs
 Rating:
4/5 (4 votes)
I Slept With Someone In Fall Out Boy And All I Got Was This Stupid Song Written About Me lessons Tabs too difficult? Try these video lessons and learn fast
                Well Here We Go!

Hmm This is i slept with someone in fall out boy and all i got was this stupid song 
about me v.3!!! :P i was a total newbiw so i could't tell the difference beetween drop d and 
tuning hehe

me (wooooow long name)
Album : Under The Cork Tree
Tuning : Drop D

Intro

e|------------|
B|--Both gtrs-|
G|------------|
D|2~----5~---7|
A|2~----5~---7|
D|2~----5~---7|
PM           .

e|--Gtr 1------------|------|
B|-------------------|------|
G|-4-4-4-4-----------|------|
D|-4-4-4-4-242-0-6x66|7x77--|x4 first 3 times complete the fouth only
A|-2-2-2-2-------6x66|7x77--|to the 6's
D|---------------6x66|7x77--|
PM . . . .      . .. . ..


Post-verse
both gtrs
e|----------------------------------------|
B|----------------------------------------|
G|4-44----------------2-22-4-44-----------|
D|4-44-0-00-5-55-0-00-2-22-4-44-5-55-0-00-| X2
A|2-22-0-00-5-55-0-00-0-00-2-22-5-55-0-00-|
D|-----0-00-5-55-0-00-----------5-55-0-00-|

verse
Gtr1
e|---------------------------|
B|---------------------------|
G|4-4x44-4x44-4x44-----------|
D|4-4x44-4x44-4x44-6x66-7x77-| x?
A|2-2x22-2x22-2x22-6x66-7x77-|
D|-----------------6x66-7x77-|
PM . .. . .. . .. . .. . ..

Pre chorus(both gtrs)

e|----------|
B|----------|
G|----------|
D|2~---5~---|
A|2~---5~---|
D|2~---5~---|
chorus

both gtrs i think
e|-----------------------------------------------------|
B|-----------------------------------------------------|
G|4-4-44---------------------4-4-44-2-2-22-------------|
D|4-4-44-0-0-00-2~--4-5-5-55-4-4-44-2-2-22--5xxxx75xxxx| x2
A|2-2-22-0-0-00-2~--4-5-5-55-2-2-22-0-0-00--5xxxx75xxxx|
D|-------0-0-00-0~--4-5-5-55----------------5xxxx75xxxx|

Bridge(i don't know the solo)
gtr 2
e|------------------------|
B|------------------------|
G|4~xx-x------------------|
D|4~xx-x0~xx-x7~xx-x5~xxxx|
A|2~xx-x0~xx-x7~xx-x5~xxxx|
D|------0~xx-x7~xx-x5~xxxx|

Bridge pt 2
Both gtrs
e|-----------------------------------------------------------------|
B|-----------------------------------------------------------------|
G|44----------------44----------------44---------------------------|
D|44----------------44----------------44-----------------2~---5~---|
A|22----------------22----------------22-----------------2~-- 5~---|
D|--2222222222222222--2222222222222222--2222222222222222-2~---5~---|
PM  ................  ................  ................
Order:
Intro
Post verse
Verse
Pre chorus
Chorus x2
Post verse
Verse Bridge
Chorus x2
Bridge pt 2
Bridge
Pre chorus
Chorus x4
            
Submit corrections

comments powered by Disqus
↑ Back to top | Fall Out Boy Tabs for I Slept With Someone In Fall Out Boy And All I Got Was This Stupid Song Written About Me. Lyrics for acoustic guitar and electric guitar. Tablatures and chords are parodies/interpretations of the original songs. You may use it for private study, scholarship, research or language learning purposes only