>
 >
I Dont Care

I Dont Care Guitar Tabs

Fall Out Boy - I Dont Care chords, tabs, tablatures, lyrics

Guitar lessons | Add/correct | Request | Top 50 tabs Artists:  A B C D E F G H I J K L M N O P Q R S T U V W X Y Z 0-9

I Dont Care Guitar Tabs – Fall Out Boy

CD, Sheet music, Poster

Do you like I Dont Care? Share with your friends now
Bass TabsBass Tabs v2Bass Tabs v3Bass Tabs v4Bass Tabs v5ChordsChords v2Chords v3TabsTabs v2Tabs v3Tabs v4Tabs v5Tabs v6Tabs v7Tabs v8Ukulele
-------------------------------------------------------------------------------
                        I Don't Care - Fall Out Boy
-------------------------------------------------------------------------------

Tuning:Standard (E A D G B e)

Intro
e|----------------------------------------------------|
B|----------------------------------------------------|
G|----------------------------------------------------|
D|-------4--4--4-------4-----4-----4-----4-----4------|    X4
A|-----------------(0)-0-(0)-2-(0)-0-(0)-2-(0)-0------|
E|--0-2-----------------------------------------------|

Verse
e|----------------------------------------------------|
B|----------------------------------------------------|
G|----------------------------------------------------|
D|-------4--4--4-------4-----4-----4-----4-----4------|    X2
A|-----------------(0)-0-(0)-2-(0)-0-(0)-2-(0)-0------|
E|--0-2-----------------------------------------------|

e|----------------------------------|
B|----------------------------------|
G|----------------------------------|
D|----------------------------------|
A|-5555555-444444-222222-2h4-2-0----|
E|----------------------------------|

e|----------------------------------------------------|
B|----------------------------------------------------|
G|----------------------------------------------------|
D|-------4--4--4-------4-----4-----4-----4-----4------|    X3
A|-----------------(0)-0-(0)-2-(0)-0-(0)-2-(0)-0------|
E|--0-2-----------------------------------------------|

e|----------------------------------|
B|----------------------------------|
G|----------------------------------|
D|----------------------------------|
A|-5555555-444444-222222-2h4-2-0----|
E|----------------------------------|

e|----------------------------------------------------|
B|----------------------------------------------------|
G|----------------------------------------------------|
D|-------4--4--4-------4-----4-----4-----4-----4------|   
A|-----------------(0)-0-(0)-2-(0)-0-(0)-2-(0)-0------|
E|--0-2-----------------------------------------------|

Chorus
e|---------------------------------------------------------------------------------------|
B|---------------------------------------------------------------------------------------|
G|-----------------------------7-77-77-77-7--4-44-44-44-4--7-77-77-77-7--4-44-44-44-4----|
D|-4-44-44-44-4--7-77-77-77-7--7-77-77-77-7--4-44-44-44-4--7-77-77-77-7--4-44-44-44-4----|
A|-4-44-44-44-4--7-77-77-77-7--5-55-55-55-5--2-22-22-22-2--5-55-55-55-5--2-22-22-22-2----|
E|-2-22-22-22-2--5-55-55-55-5------------------------------------------------------------|

e|----------------------------------------------------|
B|----------------------------------------------------|
G|----------------------------------------------------|
D|-------4--4--4-------4-----4-----4-----4-----4------|   
A|-----------------(0)-0-(0)-2-(0)-0-(0)-2-(0)-0------|
E|--0-2-----------------------------------------------|

e|---------------------------------------------------------------------------------------|
B|---------------------------------------------------------------------------------------|
G|-----------------------------7-77-77-77-7--4-44-44-44-4--7-77-77-77-7--4-44-44-44-4----|
D|-4-44-44-44-4--7-77-77-77-7--7-77-77-77-7--4-44-44-44-4--7-77-77-77-7--4-44-44-44-4----|
A|-4-44-44-44-4--7-77-77-77-7--5-55-55-55-5--2-22-22-22-2--5-55-55-55-5--2-22-22-22-2----|
E|-2-22-22-22-2--5-55-55-55-5------------------------------------------------------------|

e|----------------------------------------------------|
B|----------------------------------------------------|
G|----------------------------------------------------|
D|-------4--4--4-------4-----4-----4-----4-----4------|   
A|-----------------(0)-0-(0)-2-(0)-0-(0)-2-(0)-0------|
E|--0-2-----------------------------------------------|

Fill
e|----------------------------------------------------|
B|----------------------------------------------------|
G|----------------------------------------------------|
D|-------4--4--4-------4-----4-----4-----4------------|   
A|-----------------(0)-0-(0)-2-(0)-0-(0)-2------------|
E|--0-2-----------------------------------------------|

REPEAT VERSE, CHORUS & FILL

Bridge
e|----------------------------------------------------|
B|----------------------------------------------------|
G|----------------------------------------------------|
D|-------4--4--4-------4-----4-----4-----4------------|   X4
A|-----------------(0)-0-(0)-2-(0)-0-(0)-2------------|
E|--0-2-----------------------------------------------|
  PM..................................................

e|----------------------------------------------------|
B|----------------------------------------------------|
G|----------------------------------------------------|
D|-------4--4--4-------4-----4-----4-----4------------|   X7
A|-----------------(0)-0-(0)-2-(0)-0-(0)-2------------|
E|--0-2-----------------------------------------------|


e|--------------------|
B|--------------------|
G|--------------------|
D|--4--4--4-4-4-4-----|
A|--4--4--4-4-4-4-----|
E|--2--2--2-2-2-2-----|

GTR 1 -- REPEAT CHORUS X2 But With Slight differences
e|----------------------------------------------------------------------|
B|----------------------------------------------------------------------|
G|----------------7--7--7--7--4--4--4--4--7-77-77-77-7--4-44-44-44-4----|
D|-4---4---7---7--7--7--7--7--4--4--4--4--7-77-77-77-7--4-44-44-44-4----|
A|-4---4---7---7--5--5--5--5--2--2--2--2--5-55-55-55-5--2-22-22-22-2----|
E|-2---2---5---5--------------------------------------------------------| 
            ^^^^^^^^^^^                  ^
    Slightly Different Stumming          Solo Comes In Here
      Pattern First Time When
          This is Played

GTR 2 -- Solo (Played Behind Chorus)                    TP.....
e|-------------------------------------------------------x---------|
B|-12^(13)---12---10--12^(13)-12-10-12-10--12^(13)-12-10--------12-|
G|-----------------------------------------------------------------|
D|-----------------------------------------------------------------|
A|-----------------------------------------------------------------|
E|-----------------------------------------------------------------|

e|---------------------12h13h14---14---14---14141214-1212141214----|
B|-----------12h13h14----------------------------------------------|
G|-11h13h14--------------------------------------------------------|
D|-----------------------------------------------------------------|
A|-----------------------------------------------------------------|
E|-----------------------------------------------------------------|

e|-1212141214----------------14141214-1212141214-1212141214----------------|
B|------------10-10h12p10-10--------------------------------10-10h12p10----|
G|-------------------------------------------------------------------------|
D|-------------------------------------------------------------------------|
A|-------------------------------------------------------------------------|
E|-------------------------------------------------------------------------|

e|-------------------------------14-16-|
B|-10-10h12p10--12-12^13-10------------|
G|--------------------------11---------|
D|-------------------------------------|
A|-------------------------------------|
E|-------------------------------------|

e|-17-1717-1717-1717-1717-1717-1717-1717-1717-17-17171717171717171717171717171717171717--17\----|
B|----------------------------------------------------------------------------------------------|
G|----------------------------------------------------------------------------------------------|
D|----------------------------------------------------------------------------------------------|
A|----------------------------------------------------------------------------------------------|
E|----------------------------------------------------------------------------------------------|

| ^( ) bend note up to..
| PM   palm mute
| TP   tremelo picking
| /    slide up
| \    slide down
| h    hammer-on
| p    pull-off
| ~    vibrato
| +  harmonic
| x  Mute note
===============================================================================





Comments


Popular Fall Out Boy tabs & chords
Chicago Is So Two Years Ago 2 Bass Tabs
Sugar Were Going Down 2 Bass Tabs
Golden 2 Chords
Golden 4 Chords
Of All The Gin Joints In The World Chords
Sugar Were Goin Down 2 Chords
Rat A Tat Tabs
Sugar Were Going Down 2 Tabs
Thnks Fr Th Mmrs Tabs
Im Like A Lawyer With The Way Im Always Trying To Get You Off (me And You) Ukulele


Song lyrics



↑ Back to top | Tablatures and chords are parodies/interpretations of the original songs. You may use it for private study, scholarship, research or language learning purposes only
© 2014 AZChords.com Contact us | Privacy policy | DMCA | Add/correct tabs | Request tabs | Top 50 tabs