>
 >
Hum Hallelujah 2

Hum Hallelujah 2 Guitar Tabs

Fall Out Boy - Hum Hallelujah 2 chords, tabs, tablatures, lyrics

Guitar lessons | Add/correct | Request | Top 50 tabs Artists:  A B C D E F G H I J K L M N O P Q R S T U V W X Y Z 0-9

Hum Hallelujah 2 Guitar Tabs – Fall Out Boy

CD, Sheet music, Poster

Do you like Hum Hallelujah 2? Share with your friends now
Bass TabsBass Tabs v2ChordsTabsTabs v2Tabs v3Tabs v4Tabs v5Ukulele


~ = Vibrato
/ = Slide Up
\ = Slide Down
. = Palm Mute
x = Dead Note (Mute)
> = Let Ring


Drop D Tunning (DADGBE)


Intro

Guitar 3
E-------------------|              
B-------------------|   x8     
G-1111-9--11-9-7777-|       
D-x-x--x--x--x-xxxx-|          
A-9-9--7--9--7-5555-|       
E-------------------| 

Guitar 1
   ..       ...       ...       ...
E--------------------------------------|              
B--------------------------------------|       
G--------------------------------------|       
D-\00-00----000-00----000-00----000-00-|          
A-\00-00----000-00----000-00----000-00-|       
E-\00-00----000-00----000-00----000-00-|
   ..       ...       ...       ...

Guitar 2
E----------------------------------------|              
B-77777777-799999999-977777777-799999999-|       
G-xxxxxxxx-xxxxxxxxx-xxxxxxxxx-xxxxxxxxx-|       
D-44444444-466666666-644444444-466666666-|          
A----------------------------------------|       
E----------------------------------------| 


Verse

Guitar 1
  ...       ...       ...       ...
E--------------------------------------|        |----------|            
B--------------------------------------|   x2   |----------| 
G---------------------444-44-----------|        |----------| 
D-000-00----000-00----444-44----555-55-|        |-55555555-|  
A-000-00----000-00----222-22----555-55-|        |-55555555-|
E-000-00----000-00--------------555-55-|        |-55555555-| 
  ...       ...       ...       ...


Pre Chorus 1

Guitar 1
E-------------------------------------------------|              
B-------------------------------------------------|    x3    
G-xx-44-xx-44-------------xx-77-xx-77-------------|       
D-xx-44-xx-44-xx-77-xx-77-xx-77-xx-77-xx-55-xx-55-|          
A-xx-22-xx-22-xx-77-xx-77-xx-55-xx-55-xx-55-xx-55-|       
E-------------xx-77-xx-77-------------xx-55-xx-55-|

E-------------------|              
B-------------------|       
G-------------------|       
D-55555555-55555555-|          
A-55555555-55555555-|       
E-55555555-55555555-|

Guitar 2 
E----------------------------------------------------|              
B----------------------------------------------------|       
G-77777777-55555555-11111111111112111111111111111111-|       
D-xxxxxxxx-xxxxxxxx-x-x-x-x-x-x-x-x-x-x-x-x-x-x-x-x--|          
A-55555555-33333333-9-9-9-9-9-9-109-9-9-9-9-9-9-9-9--|       
E----------------------------------------------------| 

E-------------|              
B-------------|       
G-7-9-11-14-7-|       
D-x-x-x--x--x-|          
A-5-7-9--12-5-|       
E-------------| 


Chorus

Guitar 1
E-------------------------------------------|              
B-------------------------------------------|       
G-------------------------44444444----------|       
D-0000----5555----0000----44444444-55555555-|          
A-0000----5555----0000----22222222-55555555-|       
E-0000----5555----0000-------------55555555-|

E----------------------------------------------------------|              
B----------------------------------------------------------|       
G-----------------------------xx-xx-xxxxx44444444----------|       
D-00xx-xx-xxxxx55xx-xx-xxxxx00xx-xx-xxxxx44444444-55555555-|          
A-00xx-xx-xxxxx55xx-xx-xxxxx00xx-xx-xxxxx22222222-55555555-|       
E-00xx-xx-xxxxx55xx-xx-xxxxx00--------------------55555555-|

Guitar 2
E---------|              
B---------|       
G-7777777-|  *Played throughout chorus       
D-xxxxxxx-|          
A-5555555-|       
E---------|

E-------------------|              
B-------------------|        
G-1111-9--11-9-7777-|       
D-x-x--x--x--x-xxxx-|          
A-9-9--7--9--7-5555-|       
E-------------------| 


<>


Pre Chorus 2

Guitar 1
E-------------------------------------------------|              
B-------------------------------------------------|    x3    
G-xx-44-xx-44-------------xx-77-xx-77-------------|       
D-xx-44-xx-44-xx-77-xx-77-xx-77-xx-77-xx-55-xx-55-|          
A-xx-22-xx-22-xx-77-xx-77-xx-55-xx-55-xx-55-xx-55-|       
E-------------xx-77-xx-77-------------xx-55-xx-55-|

E-------------------|              
B-------------------|       
G-------------------|       
D-55555555-55555555-|          
A-55555555-55555555-|       
E-55555555-55555555-|

Guitar 2
E----------|              
B-10-------|    x8    
G----9-8-8-|       
D----------|          
A----------|       
E----------|
 
E----------------------------------------------------|              
B----------------------------------------------------|       
G-77777777-55555555-11111111111112111111111111111111-|       
D-xxxxxxxx-xxxxxxxx-x-x-x-x-x-x-x-x-x-x-x-x-x-x-x-x--|          
A-55555555-33333333-9-9-9-9-9-9-109-9-9-9-9-9-9-9-9--|       
E----------------------------------------------------| 

E-------------|              
B-------------|       
G-7-9-11-14-7-|       
D-x-x-x--x--x-|          
A-5-7-9--12-5-|       
E-------------| 


<>


Bridge

Guitar 1      . . . . . . . . . . . . . .     . . . . . . . .
E-------|   |-------------------------------------------------|             
B-------|   |-------------------------------------------------|       
G-------|   |---------------------------------4-4-4-4---------|     
D-0>----|   |-0-0-0-0-0-0-0-0-0-0-0-0-0-0-0---4-4-4-4-7-7-7-7-|       
A-0>----|   |-0-0-0-0-0-0-0-0-0-0-0-0-0-0-0---2-2-2-2-7-7-7-7-|      
E-0>----|   |-0-0-0-0-0-0-0-0-0-0-0-0-0-0-0-----------7-7-7-7-|
              . . . . . . . . . . . . . .     . . . . . . . .
  . . . . . .
E---------------|              
B---------------|        
G---------------|       
D-5-5-5-5-2-2-2-|          
A-5-5-5-5-2-2-2-|       
E-5-5-5-5-2-2-2-|
  . . . . . .

   . . . . . . . . . . . . . . . . . . . . . . . .
E|-------------------------------------------------|             
B|-------------------------------------------------|       
G|---------------------------------4-4-4-4---------|     
D|-0-0-0-0-0-0-0-0-0-0-0-0-0-0-0-0-4-4-4-4-7-7-7-7-|       
A|-0-0-0-0-0-0-0-0-0-0-0-0-0-0-0-0-2-2-2-2-7-7-7-7-|      
E|-0-0-0-0-0-0-0-0-0-0-0-0-0-0-0-0---------7-7-7-7-|
   . . . . . . . . . . . . . . . . . . . . . . . .
 
 . . . . . . . . .
E-------------------|              
B-------------------|        
G-------------------|       
D-5-5-5-5-2-2-2-2-2-|          
A-5-5-5-5-2-2-2-2-2-|       
E-5-5-5-5-2-2-2-2-2-|
  . . . . . . . . .

E---------------------------|              
B---------------------------|      
G-7>------------x-7>----x-4-|       
D-7>----x-5>----x-7>----x-4-|          
A-5>----x-5>----x-5>----x-2-|       
E-------x-5>----------------|


Final Chorus

Guitar 1 
E---------------------------------------|              
B---------------------------------------|      
G-----------------------------4444------|       
D-\00000000-55555555-00000000-4444-5555-|          
A-\00000000-55555555-00000000-2222-5555-|       
E-\00000000-55555555-00000000------5555-|

E-------------------------------------------|              
B-------------------------------------------|       
G-----------------------------xx-xx-xxxxx44-|       
D-00xx-xx-xxxxx55xx-xx-xxxxx00xx-xx-xxxxx44-|          
A-00xx-xx-xxxxx55xx-xx-xxxxx00xx-xx-xxxxx22-|       
E-00xx-xx-xxxxx55xx-xx-xxxxx00--------------|

E----------------------------------------------------------|              
B----------------------------------------------------------|       
G-----------------------------xx-xx-xxxxx44444444----------|       
D-00xx-xx-xxxxx55xx-xx-xxxxx00xx-xx-xxxxx44444444-55555555-|          
A-00xx-xx-xxxxx55xx-xx-xxxxx00xx-xx-xxxxx22222222-55555555-|       
E-00xx-xx-xxxxx55xx-xx-xxxxx00--------------------55555555-|

End On
E|------|
B|------|
G|------|
D|-0>---|
A|-0>---|
E|-0>---|

Guitar 2                                  End On
E---------|                              |-------|        
B---------|                              |-------|
G-7777777-|  *Played throughout chorus   |-11>---|    
D-xxxxxxx-|                              |-x-----|
A-5555555-|                              |-9>----|
E---------|                              |-------|





Comments


Popular Fall Out Boy tabs & chords
Americas Suitehearts Bass Tabs
Carpal Tunnel Of Love Bass Tabs
My Heart Is The Worst Kind Of Weapon Bass Tabs
Whats This 2 Bass Tabs
Grand Theft Autumn 2 Tabs
Music Or The Misery Tabs
Second Emo 1 Tabs
Yule Shoot Your Eye Out 2 Tabs
Im Like A Lawyer With The Way Im Always Trying To Get You Off Me You Ukulele
Where Is Your Boy Tonight Ukulele


Song lyrics



↑ Back to top | Tablatures and chords are parodies/interpretations of the original songs. You may use it for private study, scholarship, research or language learning purposes only
© 2014 AZChords.com Contact us | Privacy policy | DMCA | Add/correct tabs | Request tabs | Top 50 tabs