» » »

Fall Out Boy, Honorable Mention Tabs (ver.3)

Artists:  A B C D E F G H I J K L M N O P Q R S T U V W X Y Z # 

Honorable Mention Tabs (ver.3)

Fall Out Boy Tabs
 Rating:
4/5 (4 votes)
Honorable Mention lessons Tabs too difficult? Try these video lessons and learn fast
1
                Taber:Shaneov44
Key:*Palm Mute
    /Slide
    }Quick Stop
    ~Let Ring

This doesn't have the second guitar bits but the base of it should be right. I have seen
many different variations of this song and i have never found one that was done right
i decided to give you one that i think is perfect! So rock on.


Intro:
E------------------------------------------|
B------------------------------------------|
G---------3333333-77777777----3333333------|
D-3333333-3333333-77777777----3333333------|
A-3333333-1111111-55555555----1111111------|
E-1111111---------------------------x's-2--|

Verse 1:
E------------------------------------------------------------|
B------------------------------------------------------------|
G---------33-----------------------------------333333--------|
D-33--55--33---------------------333333-555555-333333--------|
A-33--55--11--2/3-1--------------333333-555555-111111--------|
E-11--33------------x's-2--------111111-333333--------x's-2--|

E--------------------------------------------------------|
B--------------------------------------------------------|
G----555555-----555555--77777777----33333333-------------|
D-8--555555--8--555555--77777777----33333333-------------|
A-8--333333--8--333333--55555555----11111111-------------|
E-6----------6-------------------------------------------|

E---------------------------------------------------------|
B---------------------------------------------------------|
G----555555-----555555------------------------------------|
D-8--555555--8--555555---1010-101010-101010-101010-----8~-|
A-8--333333--8--333333---8-8---8-8-8--8-8-8--8-8-8-----8~-|
E-6----------6-----------------------------------------6~-|

Chorus:
E---------------------------------------------------------|
B---------------------------------------------------------|
G-----------------------77-55-----------------------------|
D--33-33--88-88--77-77--77-55------------------8~---8}----|
A--33-33--88-88--77-77--55-33------------------8~---8}----|
E--11-11--66-66--55-55------------X's-3-then---6~---6}----|
      **     **     **                2 1/2 second ring out

Intro played again:
E------------------------------------------|
B------------------------------------------|
G---------3333333-77777777----3333333------|
D-3333333-3333333-77777777----3333333------|
A-3333333-1111111-55555555----1111111------|
E-1111111---------------------------x's-2--|

Verse 2:
E------------------------------------------------------------|
B------------------------------------------------------------|
G---------33-----------------------------------333333--------|
D-33--55--33---------------------333333-555555-333333--------|
A-33--55--11---------------------333333-555555-111111--------|
E-11--33-----x's-2---------------111111-333333--------x's-2--|

E--------------------------------------------------------|
B--------------------------------------------------------|
G----555555-----555555--77777777----33333333-------------|
D-8--555555--8--555555--77777777----33333333-------------|
A-8--333333--8--333333--55555555----11111111-------------|
E-6----------6-------------------------------------------|

E--------------------------------------------------------|
B--------------------------------------------------------|
G----555555-----555555--1010-101010-101010-101010--------|
D-8--555555--8--555555---8-8--8-8-8--8-8-8--8-8-8------8-|
A-8--333333--8--333333---8-8--8-8-8--8-8-8--8-8-8------8-|
E-6----------6-----------------------------------------6-|

Chorus:
E---------------------------------------------------------|
B---------------------------------------------------------|
G-----------------------77-55-----------------------------|
D--33-33--88-88--77-77--77-55------------------8~---8}----|
A--33-33--88-88--77-77--55-33------------------8~---8}----|
E--11-11--66-66--55-55------------X's-3-then---6~---6}----|
      **     **     **                2 1/2 second ring out

Bridge:
Guitar 1
E---------------|-----------------------------------------------------|
B---------------|-----------------------------------------------------|
G--2222-4444----|-------------------------------------777777--77-7-77-|
D-----------14x-|-------------------------------------777777--77-7-77-|
A---------------|----------------5-8x-----------------555555--55-5-55-|
E---------------|-1-8x-6-8x-5-8x-------1-8x-6-8x-5-8x------------*----|
   **********

Chorus:
E-----------------------------------------------------------|
B-----------------------------------------------------------|
G-----------------------77-55-------------------------------|
D--33-33--88-88--77-77--77-55------88-88-88-88-88-8--88-88--|
A--33-33--88-88--77-77--55-33------88-88-88-88-88-88-88-88--|
E--11-11--66-66--55-55---------3x--66-66-66-66-66-66-66-66--|
      **     **     **                **    **    **    **

Outro:
E-------------------------------------------|
B-------------------------------------------|
G--------------------77-55------------------|
D--3333--8888--7777--77-55------8~~~~~~~~~~~|
A--3333--8888--7777--55-33------8~~~~~~~~~~~|
E--1111--6666--5555----------3x-6~~~~~~~~~~~|
            
Submit corrections

comments powered by Disqus
↑ Back to top | Fall Out Boy Tabs for Honorable Mention. Lyrics for acoustic guitar and electric guitar. 1 Tablatures and chords are parodies/interpretations of the original songs. You may use it for private study, scholarship, research or language learning purposes only