» » »

Headfirst Slide Into Cooperstown On A Bad Bet Tabs (ver.5)

Artists:  A B C D E F G H I J K L M N O P Q R S T U V W X Y Z # 

Headfirst Slide Into Cooperstown On A Bad Bet Tabs (ver.5)

Fall Out Boy
Rating:
0/5 (0 votes)

Hard to play? Try these video lessons and learn fast.
                -------------------------------------------------------------------------------
        Head first slidfe into coopertown on a bad bet - Fall Out Boy
-------------------------------------------------------------------------------

Tuning: Drop D

e|------------------------|
B|------------------------|
G|------------------------|
D|------------------------| x8
A|-1--1--0--0-5--5-3--5--3|
D|------------0--0~~~~~~~~|


e|------------------------------------------|
B|------------------------------------------|
G|------------------------------------------|
D|------------------------------------------| x4
A|-8--8--7--7-12--12-10--12--10-------------|
D|-8--8--7--7-12--12-10--12--10-------------|

e|--------------------------------|
B|--------------------------------|
G|--------------------------------|
D|-0-0-0-0-0-0-0-0-2-2-2-2-2-2-2-2| 
A|-0-0-0-0-0-0-0-0-2-2-2-2-2-2-2-2|
D|-0-0-0-0-0-0-0-0-2-2-2-2-2-2-2-2|
   . . . . . . . . . . . . . . . 

e|--------------------------------|
B|--------------------------------|
G|--------------------------------|
D|-3-3-3-3-3-3-3-3-5-5-5-5-5-5-5-5| 
A|-3-3-3-3-3-3-3-3-5-5-5-5-5-5-5-5|
D|-3-3-3-3-3-3-3-3-5-5-5-5-5-5-5-5|
   . . . . . . . . . . . . . . .

e|-------------------------------------------------------------|
B|-------------------------------------------------------------|
G|-------------------------------------------------------------|
D|-------------------------------------------------------------| 
A|-8--8--7--7-12--12-10--12--10--8--8--7--7-12--12--12--12--12-|
D|-8--8--7--7-12--12-10--12--10--8--8--7--7-12--12--12--12--12-|

e|------------------------|
B|------------------------|
G|------------------------|
D|------------------------| 
A|-1--1--0--0-------------|
D|------------------------|
 tempest in a teacup (get unique)

here a second guitar comes in for the first significant time

  GUITAR 1
e|-------------------------|
B|-------------------------|
G|-------------------------|
D|-------------------------| 
A|-1--1--0--0-5--5--5--5--5|
D|------------0--0~~~~~~~~~|

  GUITAR 2
e|------------------------|
B|------------------------|
G|------------------------|
D|-0--0--0-0-0-0-0--0-----| x3
A|-0--0--0-0-0-0-0--0-----|
D|-0--0--0-0-0-0-0--0-----|
   .  .  . . . . .  .

  GUITAR 1
e|------------------------------|
B|------------------------------|
G|------------------------------|
D|------------------------------| x2
A|-8--8--7--7-12--12-10--12--10-|
D|-8--8--7--7-12--12-10--12--10-|

Then its pretty much the same as that for the whole thing
except in the 'last time you came through' part 
GUITAR 2 plays this
e|--------------------------------|
B|--------------------------------|
G|--------------------------------|
D|-7-7-7-7-7-7-7-7-5-5-5-5-5-5-5-5| 
A|-7-7-7-7-7-7-7-7-5-5-5-5-5-5-5-5|
D|-7-7-7-7-7-7-7-7-5-5-5-5-5-5-5-5|
   . . . . . . . . . . . . . . . 

e|--------------------------------|
B|--------------------------------|
G|--------------------------------|
D|-3-3-3-3-3-3-3-3-5-5-5-5-5-5-5-5| 
A|-3-3-3-3-3-3-3-3-5-5-5-5-5-5-5-5|
D|-3-3-3-3-3-3-3-3-5-5-5-5-5-5-5-5|
   . . . . . . . . . . . . . . .

Hope you enjoy
Please rate highly.
            
Hard to play? Try these video lessons and learn fast. | Correct




comments powered by Disqus
↑ Back to top | Tablatures and chords are parodies/interpretations of the original songs. You may use it for private study, scholarship, research or language learning purposes only