>
 >
Hand Of God 1

Hand Of God 1 Guitar Tabs

Fall Out Boy - Hand Of God 1 chords, tabs, tablatures, lyrics

Guitar lessons | Add/correct | Request | Top 50 tabs Artists:  A B C D E F G H I J K L M N O P Q R S T U V W X Y Z 0-9

Hand Of God 1 Guitar Tabs – Fall Out Boy

CD, Sheet music, Poster

Do you like Hand Of God 1? Share with your friends now
TabsTabs v2
                         HAND OF GOD
                           As recorded by Fall Out Boy

Words and Music by Fall Out Boy
Arranged by ---


This may be wrong because it is hard to hear in places.....but i think i've done a good job.....

 Intro
  Q=140
 4/4
  Gtr I
  PM PM--|  PM|    PM--|             PM-----|         PM----|
|---------------|---------------|---------------|-------------------|
|---------------|---------------|---------------|-------------------|
|---------------|---------------|---------------|-------------4-----|
|---------------|--------6------|---------------|-------------4--4--|
|-4--4-4-4--4-4-|--4-4-4-4-6--6-|-7-----------2-|-(2)---------x--2--|
|---------------|----------6--6-|-7--7-7-7--7-2-|-(2)-2-2-2-2-------|


     PM--|  PM        PM------|              PM
|---------------|------------------|--------------|------------------|
|---------------|------------------|--------------|------------------|
|-4-------------|------------------|--------------|------------------|
|-4-------------|------------------|-----------2--|-(2)--------------|
|-0--0-0-0--0-2-|-(2)--------------|-9----9----0--|-(0)--------------|
|-------------2-|-(2)-2-2-2-2-6--6-|-9--x-9--0----|------------------|
|
| Gtr II
|---------------|------------------|--------------|------------------|
|---------------|------------------|--------------|------------------|
|---------------|------------------|--------------|------------------|
|---------------|------------------|--------------|------------------|
|---------------|------------------|--------------|---------<9>-<9>--|
|---------------|------------------|--------------|------------------|


    Gtr I
                ~
||------------------------------|-------------------------|
||o-------------9---------------|----9--------------------|
||--9b11r(9)-----------9b11r(9)-|-----------9b11r(9)------|
||-----------11-----11----------|-11-----11----------11-9-|
||o-----------------------------|-------------------------|
||------------------------------|-------------------------|
|
|   Gtr II
||------------------------------|-------------------------|
||o-----------------------------|-------------------------|
||--6-----6---6-6-6--6-6-----6--|--6-6-6--6-6-----6---6-6-|
||--6-----6---6-6-6--6-6-----6--|--6-6-6--6-6-----6---6-6-|
||o-4-----4---4-4-4--4-4-----4--|--4-4-4--4-4-----4---4-4-|
||------------------------------|-------------------------|


                          1.                          2.
              ~~
|-----------------------|--------------------------||-----------------------|
|-----------------------|-------------------------o||-----------------------|
|-9b10r(9)---11-----9---|-(9)-11-----9-11-11b13r===||=9-11-----9-11-13-14---|
|----------9------9-----|----------9---------------||--------9--------------|
|-----------------------|-------------------------o||-----------------------|
|-----------------------|--------------------------||-----------------------|
|
|                   PM|
|-----------------------|--------------------------||-----------------------|
|-----------------------|-------------------------o||-----------------------|
|-2-----2--2--2-2-2-----|--------------------------||-----------------------|
|-2-----2--2--2-2-2-----|--2---2-2-2-2--2--4----4--||-2--2-2-2-2--2--4--4---|
|-0-----0--0--0-0-0-0-0-|--2---2-2-2-2--2--2----2-o||-2--2-2-2-2--2--2--2---|
|-------------------0-0-|--2---2-2-2-2--2--2----2--||-2--2-2-2-2--2--2--2---|


 Verse
  Gtr I
   >
                     ~~~~~~~~~~~~~~~~~~~~~~~~~~~~~~~~~~~~~~~~~~
|----------------|-------------------|------------------|-------------------|
|----------------|-------------------|------------------|-------------------|
|-13-------------|-(13)--------------|-(13)-------------|-(13)--------------|
|----------------|-------------------|------------------|-------------------|
|----------------|-------------------|------------------|-------------------|
|----------------|-------------------|------------------|-------------------|
|
| Gtr II
|  PM PM--|  PM|        PM--|                PM-----|          PM--|
|----------------|-------------------|------------------|-------------------|
|----------------|-------------------|------------------|-------------------|
|----------------|-------------------|------------------|-------------------|
|----------------|------------6------|------------------|------------4------|
|--4--4-4-4--4-4-|------4-4-4-4-6--6-|---7------------2-|--(2)-------2------|
|----------------|--------------6--6-|---7---7-7-7--7-2-|--(2)-2-2-2---2--2-|


  Gtr II
     PM--|  PM        PM------|              PM
|---------------|------------------|--------------|--------|
|---------------|------------------|--------------|--------|
|---------------|------------------|--------------|--------|
|-2-------------|------------------|-----------2--|-(2)----|
|-0--0-0-0--0-2-|-(2)--------------|-9----9----0--|-(0)----|
|-------------2-|-(2)-2-2-2-2-6--6-|-9--x-9--0----|--------|


    Gtrs I, II
                                   3x
||----------------|----------------||
||o---------------|---------------o||
||----------------|----------------||
||--------3b4r=2--|-(2)------------||
||o----0----------|------2--------o||
||--4-------------|---------2--3---||


  Gtr I
|-----------------|------------|-----|
|-----------------|------------|-----|
|---9-8---9-8-----|------------|-----|
|-9-----9-----7---|-(7)--------|-----|
|-----------------|------------|-----|
|-----------------|------------|-----|
|
| Gtr II
|-----------------|------------|-----|
|-----------------|------------|-----|
|-6-6---4---4---2-|-(2)--------|-----|
|-6-6---4---4---2-|-(2)--------|-----|
|-4-4---2---2---0-|-(0)--------|-----|
|-----------------|------------|-----|


 Chorus
  Gtrs I, II
|-----------------|-----------------|---------------|-----------------|
|-----------------|-----------------|---------------|-----------------|
|-----------------|-----------------|-----------9-9-|-9-9-8-8-9-9-8-8-|
|-2-2-2-2-2-2-2-2-|-6-6-6-6-6-6-6-6-|-7-7-7-7---9-9-|-9-9-9-9-9-9-9-9-|
|-2-2-2-2-2-2-2-2-|-6-6-6-6-6-6-6-6-|-7-7-7-7-------|-----------------|
|-2-2-2-2-2-2-2-2-|-6-6-6-6-6-6-6-6-|-7-7-7-7-------|-----------------|


|-----------------|-----------------|--------------|--------|
|-----------------|-----------------|--------------|--------|
|-----------------|-----------------|-6-6--4--4--2-|-(2)----|
|-2-2-2-2-2-2-2-2-|-6-6-6-6-6-6-6-6-|-6-6--4--4--2-|-(2)----|
|-2-2-2-2-2-2-2-2-|-6-6-6-6-6-6-6-6-|-4-4--2--2--0-|-(0)----|
|-2-2-2-2-2-2-2-2-|-6-6-6-6-6-6-6-6-|--------------|--------|


   Post Chorus
    Gtr I
                ~
||------------------------------|-------------------------|
||o-------------9---------------|----9--------------------|
||--9b11r(9)-----------9b11r(9)-|-----------9b11r(9)------|
||-----------11-----11----------|-11-----11----------11-9-|
||o-----------------------------|-------------------------|
||------------------------------|-------------------------|
|
|   Gtr II
||------------------------------|-------------------------|
||o-----------------------------|-------------------------|
||--6-----6---6-6-6--6-6-----6--|--6-6-6--6-6-----6---6-6-|
||--6-----6---6-6-6--6-6-----6--|--6-6-6--6-6-----6---6-6-|
||o-4-----4---4-4-4--4-4-----4--|--4-4-4--4-4-----4---4-4-|
||------------------------------|-------------------------|


                          1.                          2.
              ~~
|-----------------------|--------------------------||-----------------------|
|-----------------------|-------------------------o||-----------------------|
|-9b10r(9)---11-----9---|-(9)-11-----9-11-11b13r===||=9-11-----9-11-13-14---|
|----------9------9-----|----------9---------------||--------9--------------|
|-----------------------|-------------------------o||-----------------------|
|-----------------------|--------------------------||-----------------------|
|
|                   PM|
|-----------------------|--------------------------||-----------------------|
|-----------------------|-------------------------o||-----------------------|
|-2-----2--2--2-2-2-----|--------------------------||-----------------------|
|-2-----2--2--2-2-2-----|--2---2-2-2-2--2--4----4--||-2--2-2-2-2--2--4--4---|
|-0-----0--0--0-0-0-0-0-|--2---2-2-2-2--2--2----2-o||-2--2-2-2-2--2--2--2---|
|-------------------0-0-|--2---2-2-2-2--2--2----2--||-2--2-2-2-2--2--2--2---|


 Verse 2
                     ~~~~
|----------------|-------------------|---------------|------------------|
|----------------|-------------------|---------------|------------------|
|-13-------------|-(13)--------------|---------------|------------------|
|----------------|-------------------|---------------|------------------|
|----------------|-------------------|---------------|------------------|
|----------------|-------------------|---------------|------------------|
|
|  PM PM--|  PM|        PM--|             PM-----|         PM--|
|----------------|-------------------|---------------|------------------|
|----------------|-------------------|---------------|------------------|
|----------------|-------------------|---------------|------------------|
|----------------|------------6------|---------------|-----------4------|
|--4--4-4-4--4-4-|------4-4-4-4-6--6-|-7-----------2-|-(2)-------2------|
|----------------|--------------6--6-|-7--7-7-7--7-2-|-(2)-2-2-2---2--2-|


  Gtr II
     PM--|  PM        PM------|              PM
|---------------|------------------|--------------|--------|
|---------------|------------------|--------------|--------|
|---------------|------------------|--------------|--------|
|-2-------------|------------------|-----------2--|-(2)----|
|-0--0-0-0--0-2-|-(2)--------------|-9----9----0--|-(0)----|
|-------------2-|-(2)-2-2-2-2-6--6-|-9--x-9--0----|--------|


    Gtrs I, II
                                   3x
||----------------|----------------||
||o---------------|---------------o||
||----------------|----------------||
||--------3b4r=2--|-(2)------------||
||o----0----------|------2--------o||
||--4-------------|---------2--3---||


  Gtr I
|-----------------|------------|-----|
|-----------------|------------|-----|
|---9-8---9-8-----|------------|-----|
|-9-----9-----7---|-(7)--------|-----|
|-----------------|------------|-----|
|-----------------|------------|-----|
|
| Gtr II
|-----------------|------------|-----|
|-----------------|------------|-----|
|-6-6---4---4---2-|-(2)--------|-----|
|-6-6---4---4---2-|-(2)--------|-----|
|-4-4---2---2---0-|-(0)--------|-----|
|-----------------|------------|-----|


   Chorus
    Gtrs I, II
                                                                          3x
||------------------|-----------------|---------------|-------------------||
||o-----------------|-----------------|---------------|------------------o||
||------------------|-----------------|-----------9-9-|-9-9-8-8-9-9-8-8---||
||--2-2-2-2-2-2-2-2-|-6-6-6-6-6-6-6-6-|-7-7-7-7---9-9-|-9-9-9-9-9-9-9-9---||
||o-2-2-2-2-2-2-2-2-|-6-6-6-6-6-6-6-6-|-7-7-7-7-------|------------------o||
||--2-2-2-2-2-2-2-2-|-6-6-6-6-6-6-6-6-|-7-7-7-7-------|-------------------||


|-----------------|-----------------|--------------|
|-----------------|-----------------|--------------|
|-----------------|-----------------|-6-6--4--4--2-|
|-2-2-2-2-2-2-2-2-|-6-6-6-6-6-6-6-6-|-6-6--4--4--2-|
|-2-2-2-2-2-2-2-2-|-6-6-6-6-6-6-6-6-|-4-4--2--2--0-|
|-2-2-2-2-2-2-2-2-|-6-6-6-6-6-6-6-6-|--------------|


  PM PM--|  PM|    PM--|   PM-|
|---------------|---------------|
|---------------|---------------|
|---------------|---------------|
|---------------|----------x--x-|
|-4--4-4-4--4-4-|--4-4-4-4-4--4-|
|---------------|---------------|


   Interlude
    Gtr I
                                                                           3x
||------------------|-----------------|-----------------|------------------||
||o-----------------|-----------------|-----------------|-----------------o||
||--6-6-6-6-6-6-6-6-|-----------------|-----------------|------------------||
||--6-6-6-6-6-6-6-6-|-6-6-6-6-6-6-6-6-|-4-4-4-4-4-4-4-4-|-4-4-4------------||
||o-4-4-4-4-4-4-4-4-|-6-6-6-6-6-6-6-6-|-4-4-4-4-4-4-4-4-|-4-4-4-----0-2---o||
||------------------|-6-6-6-6-6-6-6-6-|-4-4-4-4-4-4-4-4-|-4-4-4-2-4--------||
|
|   Gtr II
|                                                                          3x
||------------------|-----------------|-----------------|------------------||
||o-----------------|-----------------|-----------------|-----------------o||
||--6-6-6-6-6-6-6-6-|-6-6-6-6-6-6-6-6-|-----------------|------------------||
||--x-x-x-x-x-x-x-x-|-x-x-x-x-x-x-x-x-|-4-4-4-4-4-4-4-4-|-4-4-4------------||
||o-4-4-4-4-4-4-4-4-|-4-4-4-4-4-4-4-4-|-4-4-4-4-4-4-4-4-|-4-4-4-----0-2---o||
||------------------|-----------------|-4-4-4-4-4-4-4-4-|-4-4-4-2-4--------||


                               PM----------------------|
|-----------------|----------|-----------------|-----------------|
|-----------------|----------|-----------------|-----------------|
|-6-6-6-6-6-6-6-6-|----------|-----------------|-----------------|
|-6-6-6-6-6-6-6-6-|-6--------|-----------------|---------4-4-4-4-|
|-4-4-4-4-4-4-4-4-|-6--------|-----------------|-4-4-4-4-4-4-4-4-|
|-----------------|-6--------|-4-4-4-4-4-4-4-4-|-4-4-4-4-4-4-4-4-|
|
|                              PM----------------------|
|-----------------|----------|-----------------|-----------------|
|-----------------|----------|-----------------|-----------------|
|-6-6-6-6-6-6-6-6-|----------|-----------------|-----------------|
|-x-x-x-x-x-x-x-x-|-6--------|-----------------|---------4-4-4-4-|
|-4-4-4-4-4-4-4-4-|-6--------|-----------------|-4-4-4-4-4-4-4-4-|
|-----------------|-6--------|-4-4-4-4-4-4-4-4-|-4-4-4-4-4-4-4-4-|


  Gtr III
                                       <
|----------|-------------|-----------|-----------------|
|----------|-------------|-----------|-----------------|
|----------|-------------|-----------|-----------------|
|-2--------|--6--6-------|-7-7-------|-7-7-7-7-7-7-7-7-|
|-2--------|--6--6-------|-7-7-------|-7-7-7-7-7-7-7-7-|
|-2--------|--6--6-------|-7-7-------|-7-7-7-7-7-7-7-7-|
|
| Gtr II
| >                                    <
|----------|-------------|-----------|-----------------|
|----------|-------------|-----------|-----------------|
|----------|-------------|-----------|-----------------|
|-2--------|-(2)---------|-----------|-7-7-7-7-7-7-7-7-|
|-x--------|-(x)---------|-7---------|-7-7-7-7-7-7-7-7-|
|-2--------|-(2)---------|-7---------|-7-7-7-7-7-7-7-7-|


 Outro
  Gtrs I, II
|-----------------|-----------------|-----------------|-----------------|
|-----------------|-----------------|-----------------|-----------------|
|-----------------|-----------------|-----------------|-----------------|
|-2-2-2-2-2-2-2-2-|-6-6-6-6-6-6-6-6-|-7-7-7-7-7-7-7-7-|-7-7-7-7-7-7-7-7-|
|-2-2-2-2-2-2-2-2-|-6-6-6-6-6-6-6-6-|-7-7-7-7-7-7-7-7-|-7-7-7-7-7-7-7-7-|
|-2-2-2-2-2-2-2-2-|-6-6-6-6-6-6-6-6-|-7-7-7-7-7-7-7-7-|-7-7-7-7-7-7-7-7-|


|-----------------|-----------------|--------------|-----------------|
|-----------------|-----------------|--------------|-----------------|
|-----------------|-----------------|-6-6--4--4--2-|-x-2-2-2-x-2-x-2-|
|-2-2-2-2-2-2-2-2-|-6-6-6-6-6-6-6-6-|-6-6--4--4--2-|-x-2-2-2-x-2-x-2-|
|-2-2-2-2-2-2-2-2-|-6-6-6-6-6-6-6-6-|-4-4--2--2--0-|-x-0-0-0-x-0-x-0-|
|-2-2-2-2-2-2-2-2-|-6-6-6-6-6-6-6-6-|--------------|-----------------|


|-----------------|-----------------|
|-----------------|-----------------|
|-2-2-2-2-x-2-x-2-|-x-2-2-2-2-x-2-x-|
|-2-2-2-2-x-2-x-2-|-x-2-2-2-2-x-2-x-|
|-0-0-0-0-x-0-x-0-|-x-0-0-0-0-x-0-x-|
|-----------------|-----------------|


                    >
|-----------------|----------|------------|--------*|
|-----------------|----------|------------|--------*|
|-x-2-2-2-2-x-2-x-|-2--------|-(2)--------|-(2)----*|
|-x-2-2-2-2-x-2-x-|-2--------|-(2)--------|-(2)----*|
|-x-0-0-0-0-x-0-x-|-0--------|-(0)--------|-(0)----*|
|-----------------|----------|------------|--------*|





Comments


Popular Fall Out Boy tabs & chords
Grenade Jumper 3 Bass Tabs
Thnks Fr Th Mmrs 3 Bass Tabs
Death Valley Chords
Dance Dance 4 Tabs
I Dont Care 2 Tabs
I Slept With Someone In Fall Out Boy And All I Got Was This Stupid Song Written About Me 6 Tabs
Love Will Tear Us Apart Tabs
Sophomore Slump Or Comeback Of The Year 1 Tabs
What A Catch Donnie 1 Tabs
What A Catch Donnie 2 Tabs


Song lyrics



↑ Back to top | Tablatures and chords are parodies/interpretations of the original songs. You may use it for private study, scholarship, research or language learning purposes only
© 2014 AZChords.com Contact us | Privacy policy | DMCA | Add/correct tabs | Request tabs | Top 50 tabs