» » »

Fall Out Boy, Growing Up Tabs (ver.1)

Artists:  A B C D E F G H I J K L M N O P Q R S T U V W X Y Z # 

Growing Up Tabs (ver.1)

Fall Out Boy Tabs
Rating:
0/5 (0 votes)
Growing Up lessons Tabs too difficult? Try these video lessons and learn fast
                
tuning: normal

Riff 1:  Guitar 1                                Guitar 2
E-------------------------------------------|---------------|
B-------------------------------------------|---------------|
G-------------------------------------------|--55-4-2 x's 6-|
D------------5-----9-------------------2----|---------------|
A-777-555-33-3--7--7--------777-555-33-2-4--|---------------|
E-555-333-11----5----x's 2--555-333-11-0-2--|---------------|

Riff 2:
E-------------------------------------------------|
B-------------------------------------------------|
G------------2------------------------------------|
D-5-------55-2------55-7------5-------66666-------|
A-3-------33-0------33-5------3-------44444-------|
E---00000------0000------0000---0000------- x's 4-|
pm  .....      ....      ....   ....

Riff 3:
E------------------------------------------------------------|
B------------------------------------------------------------|
G------------------------------------------------------------|
D------------------------------------------------------------|
A-55555-77777-99999-11111--------55555-77777-99999-11-10-9-8-|
E-33333-55555-77777-99999 x's 3--33333-55555-77777-9--8--7-6-|

Riff 1 (reversed order notes) x's 2

Riff 2 (without PM's) x's 2

Riff 3

Riff 4: Guitar 2 from riff 1 played with
E------------------------------------------------------------|
B------------------------------------------------------------|
G----22-------------------------2----------------------------|
D-55-22-77-44---------5----5(5)-2----5-7----7-5---------5--7-|
A-33-00-55-22 x's 4---3----3(3)-0----3-5----5-3 x's 4---3--5-|
E-----------------------00--------00-----00------------------|
pm                      ..        ..     ..
            
Submit corrections

comments powered by Disqus
↑ Back to top | Fall Out Boy Tabs for Growing Up. Lyrics for acoustic guitar and electric guitar. Tablatures and chords are parodies/interpretations of the original songs. You may use it for private study, scholarship, research or language learning purposes only