» » »

Fall Out Boy, Dead On Arrival Bass tabs (ver.2)

Artists:  A B C D E F G H I J K L M N O P Q R S T U V W X Y Z # 

Dead On Arrival Bass tabs (ver.2)

Fall Out Boy Tabs
 Rating:
4/5 (4 votes)
Dead On Arrival lessons Tabs too difficult? Try these video lessons and learn fast
1
                
fall out boy is awesome, and their cd rocks! i hope you like the tab, i did my best.

Intro
G|------------------------------------------------------------------------|
D|------------------------------------------------------------------------|
A|-------------04540--------------04540-------------04540-----------------|
E|-111-555-333--------111-555-333--------111-555-333------111-555-33333333|

Verse
G|---------------------------------------------------------------------------|
D|---------------------------------------------------------------------------|
A|-3333333333333333----------------------------------------------------------|
E|------------------000-111-555-333-1111111111111111-x-x-1-x-x-1-x-x-3-x-x-3-|

Pre-Chorus
G|--------------------------------------------------------------------|
D|--------------------------------------------------------------------|
A|--------------------------------------------------------------------|
E|-5555555555555555-1111111111111111-5555555555555555-11111-33333-----|

Chorus
G|---------------------------------------------------|
D|---------------------------------------------------|
A|-33333--------------------33333--------------------|
E|-------33333-11111-55-33--------33333-11111-55-33--|

Post-Chorus
G|--------------------------------------------------------------------|
D|--------------------------------------------------------------------|
A|-333333333333333----------------------------------------------------|
E|-----------------1111111111111111-5555555555555555-3333333333333333-|

Bridge Part 1
G|----------------|
D|----------------|
A|----------------|
E|-111-555-333333-|

Bridge Part 2
G|-----------------------------------------------|
D|---------------------------------3333333/5-----|
A|--3~-3~----------------------------------------|
E|--------111111111111111111111111---------------|

Chorus Variation
G|-----------------------------------------|
D|-----------------------------------------|
A|--33------------------33-----------------|
E|-----\111-555-333-555----111-555-333-555-|

Ending Thing
G|------------------------------|
D|------------------------------|
A|--33333-----------------------|
E|--------333-555-11111-555-333-|

End on
G|----|
D|----|
A|-33-|
E|----|

Order:
Intro x1
Verse x2
Pre-Chorus x1
Chorus x2
Post-Chorus x2
Verse x2
Pre-Chorus x1
Chorus x2
Bridge Part 1 x4
Bridge Part 2 x1
Chorus Variation x1
Chorus x2
Ending Thing x1

-duffy
            
Submit corrections

comments powered by Disqus
↑ Back to top | Fall Out Boy Bass for Dead On Arrival. Lyrics for acoustic guitar and electric guitar. 1 Tablatures and chords are parodies/interpretations of the original songs. You may use it for private study, scholarship, research or language learning purposes only