» » »

Fall Out Boy, Dance Dance Tabs (ver.1)

Artists:  A B C D E F G H I J K L M N O P Q R S T U V W X Y Z # 

Dance Dance Tabs (ver.1)

Fall Out Boy Tabs
 Rating:
4/5 (4 votes)
Dance Dance lessons Tabs too difficult? Try these video lessons and learn fast
                Fall Out Boy - Dance, Dance

this is a great song, and i love the guitar parts. it's also fairly easy to play,
and it's fun to play. standard tuning (EBGDAE).

 key:

 / - slide up
 \ - slide down
 . - palm-mute
 x - left hand mute
 h - hammer-on
 p - pull-off
 ~ - let it ring

-------------------------------------------------------------------------------
Guitar 1
-------------------------------------------------------------------------------

verse

E|-------------------|
B|-------------------|
G|--6-4---6-4---7----|
D|------4-----4---4--|
A|-------------------| (x4)
E|-------------------|
    . . . . . . . .

pre-chorus

E|-------------------------------|
B|-------------------------------|
G|-------------------------------|
D|----------0-0-4-4-2-2-4-4------|
A|--2-2-4-4------------------22--| (x4)
E|-------------------------------|

E|-------------------|
B|-------------------|
G|--6-4---6-4---7----|
D|------4-----4---4--|
A|-------------------| (x1)
E|-------------------|
    . . . .

chorus

E|------------------------|
B|------------------------|
G|--4444/7777/9999\66/99--|
D|--xxxx/xxxx/xxxx\xx/xx--|
A|--2222/5555/7777\44/77--| (x4)
E|------------------------|

post-chorus

E|-------------------|
B|-------------------|
G|--6-4---6-4---7----|
D|------4-----4---4--|
A|-------------------| (x4)
E|-------------------|
    . . . . . . . .

verse

E|-------------------|
B|-------------------|
G|--6-4---6-4---7----|
D|------4-----4---4--|
A|-------------------| (x3)
E|-------------------|
    . . . . . . . .

pre-chorus

E|-------------------------------|
B|-------------------------------|
G|-------------------------------|
D|----------0-0-4-4-2-2-4-4------|
A|--2-2-4-4------------------22--| (x4)
E|-------------------------------|

rest then

E|------------|
B|------------|
G|------------|
D|--xx--xxxx--|
A|--xx--xxxx--| (x1)
E|--xx--xxxx--|

chorus

E|------------------------|
B|------------------------|
G|--4444/7777/9999\66/99--|
D|--xxxx/xxxx/xxxx\xx/xx--|
A|--2222/5555/7777\44/77--| (x4)
E|------------------------|

bridge

E|-------------------------------------------------|
B|---------------------------------------12p10h12--|
G|--44444444-66666666-77777777-77-99-11------------|
D|--xxxxxxxx-xxxxxxxx-xxxxxxxx-xx-xx--x------------|
A|--22222222-44444444-55555555-55-77--9------------| (x1)
E|-------------------------------------------------|

E|--------------------------------------------|
B|--------------------------------------------|
G|--44444444-66666666-77777777-9999-11111111--|
D|--xxxxxxxx-xxxxxxxx-xxxxxxxx-xxxx--x-x-x-x--|
A|--22222222-44444444-55555555-7777--9-9-9-9--| (x1)
E|--------------------------------------------|

E|---------------------------------------------------------|
B|---------------------------------------------------------|
G|--44444444-66666666-77-99-1111-1616-1515-1616-1818-2121--|
D|--xxxxxxxx-xxxxxxxx-xx-xx--x-x--x-x--x-x--x-x--x-x--x-x--|
A|--22222222-44444444-55-77--9-9-1414-1313-1414-1616-1919--| (x1)
E|---------------------------------------------------------|

E|-------------------------|
B|-------------------------|
G|--21/23------------------|
D|---x/-x-(x24)--xxx-x-xx--|
A|--19/21--------xxx-x-xx--| (x1)
E|---------------xxx-x-xx--|

chorus

E|------------------------|
B|------------------------|
G|--4444/7777/9999\66/99--|
D|--xxxx/xxxx/xxxx\xx/xx--|
A|--2222/5555/7777\44/77--| (x6)
E|------------------------|

E|--0~--|
B|--0~--|
G|--0~--|
D|--0~--|
A|------| (x1)
E|------|

outro

E|-------------------|
B|-------------------|
G|--6-4---6-4---7----|
D|------4-----4---4--|
A|-------------------| (x3)
E|-------------------|
    . . . . . . . .

E|-----------------|
B|-----------------|
G|--6-4---6-4---7--|
D|------4-----4----|
A|-----------------| (x1)
E|-----------------|
    . . . . . . .


-------------------------------------------------------------------------------
Guitar 2
-------------------------------------------------------------------------------

pre-chorus

E|-------------------------------|
B|-------------------------------|
G|-------------------------------|
D|----------0-0-4-4-2-2-4-4------|
A|--2-2-4-4------------------22--| (x4)
E|-------------------------------|

chorus

E|-----------------------------------------|
B|-----------------------------------------|
G|--4-4-4444--7-7-7777---------------------|
D|--4-4-4444--7-7-7777--5-5-5555--4-4-7-7--|
A|--2-2-2222--5-5-5555--5-5-5555--4-4-7-7--| (x4)
E|----------------------3-3-3333--2-2-5-5--|

post-chorus

E|--------------------------------------------------|
B|--------------------------------------------------|
G|--------------------------------------------------|
D|--------------------------------------------------|
A|--5-5-5-------5-5-5-------5-5-5-------5-5-5----2--| (x1)
E|---------5\2---------5\2---------5\2---------5----|

verse

E|-----------------------------------------|
B|-----------------------------------------|
G|-----------------------------------------|
D|-----------------------------------------|
A|--2----5-5-5-------5-5-5-------5-5-5-----| (x1)
E|--------------5\2---------5\2---------5--|

pre-chorus

E|-------------------------------|
B|-------------------------------|
G|-------------------------------|
D|----------0-0-4-4-2-2-4-4------|
A|--2-2-4-4------------------22--| (x4)
E|-------------------------------|

rest then

E|------------|
B|------------|
G|------------|
D|--xx--xxxx--|
A|--xx--xxxx--| (x1)
E|--xx--xxxx--|

chorus

E|-----------------------------------------|
B|-----------------------------------------|
G|--4-4-4444--7-7-7777---------------------|
D|--4-4-4444--7-7-7777--5-5-5555--4-4-7-7--|
A|--2-2-2222--5-5-5555--5-5-5555--4-4-7-7--| (x4)
E|----------------------3-3-3333--2-2-5-5--|

bridge

E|------------------------------------------|
B|------------------------------------------|
G|--44444444--------------------------------|
D|--44444444--77777777--44444444--55555555--|
A|--22222222--77777777--44444444--55555555--| (x3)
E|------------55555555--22222222--33333333--|

E|------------|
B|------------|
G|------------|
D|--xxx-x-xx--|
A|--xxx-x-xx--| (x1)
E|--xxx-x-xx--|

chorus

E|-----------------------------------------|
B|-----------------------------------------|
G|--4-4-4444--7-7-7777---------------------|
D|--4-4-4444--7-7-7777--5-5-5555--4-4-7-7--|
A|--2-2-2222--5-5-5555--5-5-5555--4-4-7-7--| (x6)
E|----------------------3-3-3333--2-2-5-5--|

E|--0~--|
B|--0~--|
G|--0~--|
D|--0~--|
A|------| (x1)
E|------|

outro

E|-------------------------------|
B|-------------------------------|
G|-------------------------------|
D|----------0-0-4-4-2-2-4-4------|
A|--2-2-4-4------------------22--| (x4)
E|-------------------------------|


there you go... 100% correct. if you have any comments or questions you can e-mail me at
            
Submit corrections

comments powered by Disqus
↑ Back to top | Fall Out Boy Tabs for Dance Dance. Lyrics for acoustic guitar and electric guitar. Tablatures and chords are parodies/interpretations of the original songs. You may use it for private study, scholarship, research or language learning purposes only