>
 >
Calm Before The Storm 1

Calm Before The Storm 1 Guitar Tabs

Fall Out Boy - Calm Before The Storm 1 chords, tabs, tablatures, lyrics

Guitar lessons | Add/correct | Request | Top 50 tabs Artists:  A B C D E F G H I J K L M N O P Q R S T U V W X Y Z 0-9

Calm Before The Storm 1 Guitar Tabs – Fall Out Boy

CD, Sheet music, Poster

Do you like Calm Before The Storm 1? Share with your friends now
Bass TabsBass Tabs v2TabsTabs v2
Fall Out Boy - Calm Before the Storm
Take This To Your Grave

awesome song... that's all i have to say. the tab's in order from top to bottom,
so read through the whole tab. no shenanigans.

key:

 / = slide up
 \ = slide down
 . = palm-mute
 x = left hand mute
x/x = pick slide 

----------------------------------------------------------------------------
Guitar 1 (Standard Tuning)

intro

E|--------------------------------------------------------------|
B|--------------------------------------------------------------|
G|--------------------------------------------------------------|
D|----------------------------------------7~----7~----7~----7~--|
A|--0-0-4h5--0-0-4h5------4-------2----55----44-----------------| (x3)
E|--------------------2-2---2-0-0---0--------------77----77-----|
    . .      . .      . . . . . . . .

E|---------------------------------|
B|---------------------------------|
G|---------------------x\x-7~---7--|
D|---------------------x\x-7~---7--|
A|--0-0-4h5--0-0-4h5---x\x-5~---5--| (x1)
E|---------------------------------|
    . .      . .      

verse (fast transition from intro)

E|------------------------------------------|
B|------------------------------------------|
G|--2-222222--------------------------------|
D|--2-222222--2-222222--4-444444--2-222222--|
A|--0-000000--2-222222--4-444444--2-222222--| (x1)
E|------------0-000000--2-222222--0-000000--|
      ......    ......    ......    ......

E|------------------------------------------|
B|------------------------------------------|
G|--2-222222-------------------4444/666666--|
D|--2-222222--7-777777--4-4444-xxxx/xxxxxx--|
A|--0-000000--7-777777--4-4444-2222/444444--| (x1)
E|------------4-444444--2-2222--------------|
      ......    ......    ....

E|------------------------------------------|
B|------------------------------------------|
G|--2-222222--------------------------------|
D|--2-222222--2-222222--4-444444--2-222222--|
A|--0-000000--2-222222--4-444444--2-222222--| (x1)
E|------------0-000000--2-222222--0-000000--|
      ......    ......    ......    ......

E|-----------------------------------------|
B|-----------------------------------------|
G|--2-222222--------------66666-4-44-66-7--|
D|--2-222222--7-777777--4-xxxxx-x-xx-xx-x--|
A|--0-000000--7-777777--4-44444-2-22-44-5--| (x1)
E|------------4-444444--2------------------|
      ......    ......

pre-chorus (hard to hear, listen to the song for timing)

E|---------------------------------------|
B|---------------------------------------|
G|--77777777-77777777-66666666-44444444--|
D|--xxxxxxxx-xxxxxxxx-xxxxxxxx-xxxxxxxx--|
A|--55555555-55555555-44444444-22222222--| (x4)
E|---------------------------------------|

chorus

E|-------------------------------------------------------|
B|-------------------------------------------------------|
G|--22-22--------------------------x\x-2-2-2-2-----------|
D|--22-22--22-22-x-x-x-xxxx-44-44--x\x-2-2-2-2--2-2-2-2--|
A|--00-00--22-22-x-x-x-xxxx-44-44--x\x-0-0-0-0--2-2-2-2--| (x2)
E|---------00-00-x-x-x-xxxx-22-22---------------0-0-0-0--|

verse

E|--------------------------------------------------------------|
B|--------------------------------------------------------------|
G|--------------------------------------------------------------|
D|----------------------------------------7~----7~----7~----7~--|
A|--0-0-4h5--0-0-4h5------4-------2----55----44-----------------| (x3)
E|--------------------2-2---2-0-0---0--------------77----77-----|
    . .      . .      . . . . . . . .

E|--------------------------------------------------|
B|--------------------------------------------------|
G|-------------------------------------7~--7-7-7-7--|
D|-------------------------------------7~--7-7-7-7--|
A|--0-0-4h5--0-0-4h5------4-------2----5~--5-5-5-5--| (x1)
E|--------------------2-2---2-0-0---0---------------|
    . .      . .      . . . . . . . .

E|------------------------------------------|
B|------------------------------------------|
G|--2-222222--------------------------------|
D|--2-222222--2-222222--4-444444--2-222222--|
A|--0-000000--2-222222--4-444444--2-222222--| (x1)
E|------------0-000000--2-222222--0-000000--|
      ......    ......    ......    ......

E|------------------------------------------|
B|------------------------------------------|
G|--2-222222-------------------9999\777777--|
D|--2-222222--7-777777--4-4444-xxxx\xxxxxx--|
A|--0-000000--7-777777--4-4444-7777\555555--| (x1)
E|------------4-444444--2-2222--------------|
      ......    ......    ....

E|------------------------------------------|
B|------------------------------------------|
G|--2-222222--------------------------------|
D|--2-222222--2-222222--4-444444--2-222222--|
A|--0-000000--2-222222--4-444444--2-222222--| (x1)
E|------------0-000000--2-222222--0-000000--|
      ......    ......    ......    ......

E|-----------------------------------------|
B|-----------------------------------------|
G|--2-222222--------------66666-4-44-66-7--|
D|--2-222222--7-777777--4-xxxxx-x-xx-xx-x--|
A|--0-000000--7-777777--4-44444-2-22-44-5--| (x1)
E|------------4-444444--2------------------|
      ......    ......

pre-chorus (hard to hear, listen to the song for timing)

E|---------------------------------------|
B|---------------------------------------|
G|--77777777-77777777-66666666-44444444--|
D|--xxxxxxxx-xxxxxxxx-xxxxxxxx-xxxxxxxx--|
A|--55555555-55555555-44444444-22222222--| (x4)
E|---------------------------------------|

chorus (different, listen for timing)

E|------------------------------------|
B|------------------------------------|
G|----22--22--44--44--22--22--44--44--|
D|------------------------------------|
A|--00--00--00--00--00--00--00--00----| (x1)
E|------------------------------------|
    ..  ..  ..  ..  ..  ..  ..  ..

E|------------------------------------|
B|------------------------------------|
G|----22--22--44--44--22--22--11--11--|
D|------------------------------------|
A|--00--00--00--00--00--00--00--00----| (x1)
E|------------------------------------|
    ..  ..  ..  ..  ..  ..  ..  ..

E|------------------------------------|
B|------------------------------------|
G|----22--22--44--44--22--22--44--44--|
D|------------------------------------|
A|--00--00--00--00--00--00--00--00----| (x1)
E|------------------------------------|
    ..  ..  ..  ..  ..  ..  ..  ..

E|------------------------------------|
B|------------------------------------|
G|----22--22--44--44--22--22--11--11--|
D|------------------------------------|
A|--00--00--00--00--00--00--00--00----| (x1)
E|------------------------------------|
    ..  ..  ..  ..  ..  ..  ..  ..

bridge

E|-------------------------------------------------------------------|
B|-------------------------------------------------------------------|
G|-------------------------------------------------------------------|
D|-------------------------------------------------------------------|
A|--0-0-4h5-0-7-0-5-0-0-4h5-0-7-0-5-0-0-4h5-0-7-0-5-0-0-4h5-0-7-0-5--| (x4)
E|-------------------------------------------------------------------|
    . .     . . . . . .     . . . . . .     . . . . . .     . . . .

E|---------------------------------------------------|
B|---------------------------------------------------|
G|-----------------------------------777777-666-777--|
D|-----------------------------------xxxxxx-xxx-xxx--|
A|--0-0-4h5-0-7-0-5-0-0-4h5-0-7-0-5--555555-444-555--| (x1)
E|---------------------------------------------------|
    . . 

E|--------------------------------|
B|--------------------------------|
G|--777777-666-777-999999-999999--|
D|--xxxxxx-xxx-xxx-xxxxxx-xxxxxx--|
A|--555555-444-555-777777-777777--| (x4)
E|--------------------------------|

E|---------------------------------------------------|
B|---------------------------------------------------|
G|--2~-----------------------------------------------|
D|--2~---(rest then use feedback for ringing noise)--|
A|--0~-----------------------------------------------| (x1)
E|---------------------------------------------------|

outro

E|----------------------------------------------|
B|----------------------------------------------|
G|--------------------------22222222------------|
D|--x\x--44444444-44444444--22222222--22222222--|
A|--x\x--44444444-44444444--00000000--22222222--| (x1)
E|--x\x--22222222-22222222------------00000000--|

E|----------------------------------------|
B|----------------------------------------|
G|--22222222-22222222---------------------|
D|--22222222-22222222--22222222-22222222--|
A|--00000000-00000000--22222222-22222222--| (x1)
E|---------------------00000000-00000000--|

E|-----------------------------------------|
B|-----------------------------------------|
G|---------------------22222222------------|
D|--44444444-44444444--22222222--22222222--|
A|--44444444-44444444--00000000--22222222--| (x1)
E|--22222222-22222222------------00000000--|

E|----------------------------------------|
B|----------------------------------------|
G|--22222222-22222222---------------------|
D|--22222222-22222222--22222222-22222222--|
A|--00000000-00000000--22222222-22222222--| (x1)
E|---------------------00000000-00000000--|

E|-----------------------------------|
B|-----------------------------------|
G|---------------------7~--6--7--2~--|
D|--44444444-44444444--x---x--x--2~--|
A|--44444444-44444444--5---4--5--0~--| (x1)
E|--22222222-22222222----------------|

----------------------------------------------------------------------------
Guitar 2 (Drop D Tuning)

intro

E|--------------|
B|--------------|
G|-----------7--|
D|--x\x-0~---7--|
A|--x\x-0~---5--| (x1)
D|--x\x-0~---0--|

verse

E|------------------------------------------|
B|------------------------------------------|
G|------------------------------------------|
D|--7-777777--2-222222--4-444444--2-222222--|
A|--7-777777--2-222222--4-444444--2-222222--| (x1)
D|--7-777777--2-222222--4-444444--2-222222--|
      ......    ......    ......    ......

E|------------------------------------------|
B|------------------------------------------|
G|------------------------------------------|
D|--7-777777--7-777777--4-444444--2-222222--|
A|--7-777777--7-777777--4-444444--2-222222--| (x1)
D|--7-777777--6-666666--4-444444--2-222222--|
      ......    ......    ......    ......

E|------------------------------------------|
B|------------------------------------------|
G|------------------------------------------|
D|--7-777777--2-222222--4-444444--2-222222--|
A|--7-777777--2-222222--4-444444--2-222222--| (x1)
D|--7-777777--2-222222--4-444444--2-222222--|
      ......    ......    ......    ......

E|------------------------------------------|
B|------------------------------------------|
G|------------------------------------------|
D|--7-777777--7-777777--4-444444--2-222222--|
A|--7-777777--7-777777--4-444444--2-222222--| (x1)
D|--7-777777--6-666666--4-444444--2-222222--|
      ......    ......

pre-chorus

E|---------------------------------------|
B|---------------------------------------|
G|---------------------------------------|
D|--00000000-00000000-44444444-22222222--|
A|--00000000-00000000-44444444-22222222--| (x4)
D|--00000000-00000000-44444444-22222222--|

chorus

E|-------------------------------------------------------|
B|-------------------------------------------------------|
G|-------------------------------------------------------|
D|--77-77--22-22-x-x-x-xxxx-44-44--x\x-7-7-7-7--2-2-2-2--|
A|--77-77--22-22-x-x-x-xxxx-44-44--x\x-7-7-7-7--2-2-2-2--| (x2)
D|--77-77--22-22-x-x-x-xxxx-44-44--x\x-7-7-7-7--2-2-2-2--|

verse (none at the beginning)

E|------------------------------------------|
B|------------------------------------------|
G|------------------------------------------|
D|--7-777777--2-222222--4-444444--2-222222--|
A|--7-777777--2-222222--4-444444--2-222222--| (x1)
D|--7-777777--2-222222--4-444444--2-222222--|
      ......    ......    ......    ......

E|------------------------------------------|
B|------------------------------------------|
G|------------------------------------------|
D|--7-777777--7-777777--4-444444--2-222222--|
A|--7-777777--7-777777--4-444444--2-222222--| (x1)
D|--7-777777--6-666666--4-444444--2-222222--|
      ......    ......    ......    ......

E|------------------------------------------|
B|------------------------------------------|
G|------------------------------------------|
D|--7-777777--2-222222--4-444444--2-222222--|
A|--7-777777--2-222222--4-444444--2-222222--| (x1)
D|--7-777777--2-222222--4-444444--2-222222--|
      ......    ......    ......    ......

E|------------------------------------------|
B|------------------------------------------|
G|------------------------------------------|
D|--7-777777--7-777777--4-444444--2-222222--|
A|--7-777777--7-777777--4-444444--2-222222--| (x1)
D|--7-777777--6-666666--4-444444--2-222222--|
      ......    ......

pre-chorus

E|---------------------------------------|
B|---------------------------------------|
G|---------------------------------------|
D|--00000000-00000000-44444444-22222222--|
A|--00000000-00000000-44444444-22222222--| (x4)
D|--00000000-00000000-44444444-22222222--|

chorus

E|-------------------------------------------------------|
B|-------------------------------------------------------|
G|-------------------------------------------------------|
D|--77-77--22-22-x-x-x-xxxx-44-44--x\x-7-7-7-7--2-2-2-2--|
A|--77-77--22-22-x-x-x-xxxx-44-44--x\x-7-7-7-7--2-2-2-2--| (x2)
D|--77-77--22-22-x-x-x-xxxx-44-44--x\x-7-7-7-7--2-2-2-2--|

bridge

E|----------------------------------------------|
B|----------------------------------------------|
G|--7------7--7-7--7777-------------------------|
D|--7------7--7-7--7777-------4----4--------22--|
A|--5------5--5-5--5555-------4----4--------22--| (x1)
D|-----0000-00-0-00------4444-4-44-4-222222-22--|
       .... .. . ..      ....   ..   ......

E|-------------------------------------------|
B|-------------------------------------------|
G|------7--7-7--7777-------------------------|
D|------7--7-7--7777-------4----4--------22--|
A|------5--5-5--5555-------4----4--------22--| (x2)
D|--0000-00-0-00------4444-4-44-4-222222-22--|
    .... .. . ..      ....   ..   ......

E|-----------------------|
B|-----------------------|
G|------7777-77777777-7--|
D|------7777-77777777-7--|
A|------5555-55555555-5--| (x1)
D|--00000000-00000000-0--|

E|-----------------------------------|
B|-----------------------------------|
G|-----------------------------------|
D|--x\x-000000-000000-444444-222222--|
A|--x\x-000000-000000-444444-222222--| (x1)
D|--x\x-000000-000000-444444-222222--|

E|-------------------------------|
B|-------------------------------|
G|-------------------------------|
D|--000000-000000-444444-222222--|
A|--000000-000000-444444-222222--| (x3)
D|--000000-000000-444444-222222--|

E|---------------------------------------------------|
B|---------------------------------------------------|
G|---------------------------------------------------|
D|--7~---(rest then use feedback for ringing noise)--|
A|--7~-----------------------------------------------| (x1)
D|--7~-----------------------------------------------|

outro

E|----------------------------------------------|
B|----------------------------------------------|
G|----------------------------------------------|
D|--x\x--44444444-44444444--77777777--22222222--|
A|--x\x--44444444-44444444--77777777--22222222--| (x1)
D|--x\x--44444444-44444444--77777777--22222222--|

E|----------------------------------------|
B|----------------------------------------|
G|----------------------------------------|
D|--77777777-77777777--22222222-22222222--|
A|--77777777-77777777--22222222-22222222--| (x1)
D|--77777777-77777777--22222222-22222222--|

E|-----------------------------------------|
B|-----------------------------------------|
G|-----------------------------------------|
D|--44444444-44444444--77777777--22222222--|
A|--44444444-44444444--77777777--22222222--| (x1)
D|--44444444-44444444--77777777--22222222--|

E|----------------------------------------|
B|----------------------------------------|
G|----------------------------------------|
D|--77777777-77777777--22222222-22222222--|
A|--77777777-77777777--22222222-22222222--| (x1)
D|--77777777-77777777--22222222-22222222--|

E|---------------------------------|
B|---------------------------------|
G|---------------------------------|
D|--44444444-44444444--7~--2~--7~--|
A|--44444444-44444444--7~--2~--7~--| (x1)
D|--44444444-44444444--7~--2~--7~--|


and thats it. if you have any comments or questions you can e-mail me at





Comments


Popular Fall Out Boy tabs & chords
20 Dollar Nose Bleed Bass Tabs
Beat It Bass Tabs
What A Catch Donnie Bass Tabs
I Dont Care Chords
The Phoenix 4 Chords
What A Catch Donnie Chords
One And Only Tabs
The Mighty Fall 2 Tabs
This Aint A Scene Its An Arms Race Tabs
Lullabye Ukulele


Song lyrics



↑ Back to top | Tablatures and chords are parodies/interpretations of the original songs. You may use it for private study, scholarship, research or language learning purposes only
© 2014 AZChords.com Contact us | Privacy policy | DMCA | Add/correct tabs | Request tabs | Top 50 tabs