» » »

Beat It Tabs (ver.5)

Artists:  A B C D E F G H I J K L M N O P Q R S T U V W X Y Z # 

Beat It Tabs (ver.5)

Fall Out Boy
Rating:
0/5 (0 votes)

Hard to play? Try these video lessons and learn fast.
                (Live)
-INTRODUCTION-

DRUMS PLAY
e|-0-----------------------------|-------------------------------|
B|-0-----------------------------|-------------------------------|
G|-0-----------------------------|-------------------------------|
D|-0-----------------------------|-------------------------------|
A|-0-----------------------------|-------------------------------|
D|-0-----------------------------|-------------------------------|

e|-------------------------------|-x-x---x-x--x-x---x---x-x------|
B|-------------------------------|-x-x---x-x--x-x---x---x-x------|
G|-------------------------------|-x-x---x-x--x-x---x---x-x------|
D|-------------------------------|-x-x---x-x--x-x---x---x-x------|
A|-------------------------------|-x-x---x-x--x-x---x---x-x------|
D|-------------------------------|-x-x---x-x--x-x---x---x-x------|

DRUMS STOP
e|-------------------------------|-------------------------------|
B|-------------------------------|-------------------------------|
G|-------0-----------------------|-------0-----------------------|
D|---------2---4-2-0-0-----------|---------2---4-2-0---0-0-------|
A|-----2-------------------------|-----2-------------------------|
D|-0-3---------------------------|-0-3---------------------------|

BAND START PLAYING (DRUMS + BASS)
e|-------------------------------|-------------------------------|
B|-------------------------------|-------------------------------|
G|-------0-----------------------|-------0-----------------------|
D|---------2---4-2-0-0-----------|---------2---4-2-0---0-0-------|
A|-----2-------------------------|-----2-------------------------|
D|-0-3---------------------------|-0-3---------------------------|

-VERSE 1-

e|-------------------------------|-------------------------------|
B|-------------------------------|-------------------------------|
G|-------------------------------|-------------------------------|
D|-9-9--9-----7-7--7-------------|-9-9--9-----7-7--7-------------|
A|-7-7--7-----5-5--5-------------|-7-7--7-----5-5--5-------------|
D|-------------------------------|-------------------------------|

e|-------------------------------|-------------------------------|
B|-------------------------------|-------------------------------|
G|-------------------------------|-------------------------------|
D|-5-5--5-----7-7--7-------------|-9-9--9-----7-7--7-------------|
A|-3-3--3-----5-5--5-------------|-7-7--7-----5-5--5-------------|
D|-------------------------------|-------------------------------|

e|-------------------------------|-------------------------------|
B|-------------------------------|-------------------------------|
G|-------------------------------|-------------------------------|
D|-9-9--9-----7-7--7-------------|-9-9--9-----7-7--7-------------|
A|-7-7--7-----5-5--5-------------|-7-7--7-----5-5--5-------------|
D|-------------------------------|-------------------------------|

e|-------------------------------|-------------------------------|
B|-------------------------------|-------------------------------|
G|-------------------------------|-------------------------------|
D|-5-5--5-----7-7--7-------------|-9-9--9-----7-7--7-------------|
A|-3-3--3-----5-5--5-------------|-7-7--7-----5-5--5-------------|
D|-------------------------------|-------------------------------|

-CHORUS-

e|-------------------------------|-------------------------------|
B|-------------------------------|-------------------------------|
G|-------0-----------------------|-------0-----------------------|
D|---------2---4-2-0-0-----------|---------2---4-2-0---0-0-------|
A|-----2-------------------------|-----2-------------------------|
D|-0-3---------------------------|-0-3---------------------------|

e|-------------------------------|-------------------------------|
B|-------------------------------|-------------------------------|
G|-------0-----------------------|-------0-----------------------|
D|---------2---4-2-0-0-----------|---------2---4-2-0---0-0-------|
A|-----2-------------------------|-----2-------------------------|
D|-0-3---------------------------|-0-3---------------------------|

e|-------------------------------|-------------------------------|
B|-------------------------------|-------------------------------|
G|-------0-----------------------|-------0-----------------------|
D|---------2---4-2-0-0-----------|---------2---4-2-0---0-0-------|
A|-----2-------------------------|-----2-------------------------|
D|-0-3---------------------------|-0-3---------------------------|

-VERSE 2-

e|-------------------------------|-------------------------------|
B|-------------------------------|-------------------------------|
G|-------------------------------|-------------------------------|
D|-9-9--9-----7-7--7-------------|-9-9--9-----7-7--7-------------|
A|-7-7--7-----5-5--5-------------|-7-7--7-----5-5--5-------------|
D|-------------------------------|-------------------------------|

e|-------------------------------|-------------------------------|
B|-------------------------------|-------------------------------|
G|-------------------------------|-------------------------------|
D|-5-5--5-----7-7--7-------------|-9-9--9-----7-7--7-------------|
A|-3-3--3-----5-5--5-------------|-7-7--7-----5-5--5-------------|
D|-------------------------------|-------------------------------|

e|-------------------------------|-------------------------------|
B|-------------------------------|-------------------------------|
G|-------------------------------|-------------------------------|
D|-9-9--9-----7-7--7-------------|-9-9--9-----7-7--7-------------|
A|-7-7--7-----5-5--5-------------|-7-7--7-----5-5--5-------------|
D|-------------------------------|-------------------------------|

e|-------------------------------|-------------------------------|
B|-------------------------------|-------------------------------|
G|-------------------------------|-------------------------------|
D|-5-5--5-----7-7--7-------------|-9-9--9-----7-7--7-------------|
A|-3-3--3-----5-5--5-------------|-7-7--7-----5-5--5-------------|
D|-------------------------------|-------------------------------|

-CHORUS-

e|-------------------------------|-------------------------------|
B|-------------------------------|-------------------------------|
G|-------0-----------------------|-------0-----------------------|
D|---------2---4-2-0-0-----------|---------2---4-2-0---0-0-------|
A|-----2-------------------------|-----2-------------------------|
D|-0-3---------------------------|-0-3---------------------------|

e|-------------------------------|-------------------------------|
B|-------------------------------|-------------------------------|
G|-------0-----------------------|-------0-----------------------|
D|---------2---4-2-0-0-----------|---------2---4-2-0---0-0-------|
A|-----2-------------------------|-----2-------------------------|
D|-0-3---------------------------|-0-3---------------------------|

e|-------------------------------|-------------------------------|
B|-------------------------------|-------------------------------|
G|-------0-----------------------|-------0-----------------------|
D|---------2---4-2-0-0-----------|---------2---4-2-0---0-0-------|
A|-----2-------------------------|-----2-------------------------|
D|-0-3---------------------------|-0-3---------------------------|

-BREAKDOWN BEFORE SOLO-

e|-------------------------------|-------------------------------|
B|-------------------------------|---------------------19~-------|
G|-------------------------------|-------------------------------|
D|-0-0-0----0-0-0----------------|-0-0-0----0-0-0----------------|
A|-0-0-0----0-0-0--3~~/5---------|-0-0-0----0-0-0----------------|
D|-0-0-0----0-0-0----------------|-0-0-0----0-0-0----------------|

e|-------------------------------|-------------------------------|
B|-------------------------------|-------------------------------|
G|-------------------------------|-------------------------------|
D|-0-0-0----0-0-0----------------|-0-0-0----0-0-0----------------|
A|-0-0-0----0-0-0--3~~/5---------|-0-0-0----0-0-0----------------|
D|-0-0-0----0-0-0----------------|-0-0-0----0-0-0----------------|

START PLAYING THIS AFTER THE FIRST TWO BARS IN THE BREAKDOWN ABOVE WHILE SOMEONE ELSE 
THE BREAKDOWN OVER YOU
e|-------------------------------|-------------------------------|
B|-7-h-10-p-7----7---------------|-7-h-10-p-7----7---------------|
G|------------10-----------------|------------10-----------------|
D|-------------------------------|-------------------------------|
A|-------------------------------|-------------------------------|
D|-------------------------------|-------------------------------|

e|-------------------------------|-------------------------------|
B|-7-h-10-p-7----7---------------|-------------------------------|
G|------------10-----------------|-------------------------------|
D|-------------------------------|-0-0-0----0-0-0----------------|
A|-------------------------------|-0-0-0----0-0-0----------------|
D|-------------------------------|-0-0-0----0-0-0----------------|


Ohkay, that's all I know, not too certain on the guitar solo, but after that it's pretty 
just the chorus over and over. This is what they played on the 'LIVE IN PHOENIX' cd/dvd.

x = Mute Notes
h = Hammer-On
p = Pull-Off
~ = Vibrato
/ = Move Up Neck
            
Hard to play? Try these video lessons and learn fast. | Correct




comments powered by Disqus
↑ Back to top | Tablatures and chords are parodies/interpretations of the original songs. You may use it for private study, scholarship, research or language learning purposes only