» » »

Bang The Doldrums Bass tabs (ver.3)

Artists:  A B C D E F G H I J K L M N O P Q R S T U V W X Y Z # 

Bang The Doldrums Bass tabs (ver.3)

Fall Out Boy
Rating:
0/5 (0 votes)

Tabs too difficult? Try these video lessons and learn fast.
                tuning: standard

Intro:
G|-----------------------------------|
D|-----------------------------------|
A|---------------44------------------|
E|-6-4-22-2-44-4----6-4-22-2-44-4-66-| x2

Verse:
G|-----------------|
D|-----------------|
A|-111-------------|
E|-----222-444-222-| x4

Pre-Chorus:
G|--------------------------|
D|--------------------------|
A|-6-6-66-------------------|
E|--------1-1-11-2-2-222222-| x2

Chorus
G|---------------------------------------------------------------|
D|---------------------------------------------------------------|
A|-44444444--------444444----------------------------------------|
E|----------555555--------6-4-22-55555-2-4-66-22222222-444444444-|

Intro x2
Verse x4
Pre-Chorus x2
Chorus x1
Intro x2
Verse x8

Bridge: 
G|----------------------------------------|---------------------------------------|
D|----------------------------------------|---------------------------------------|
A|--------------------4444-3333-1111------|----------------------------111111-----|
E|-222222222-44444444----------------1111-|-222222222-44444444-1111111-------44444|

G|----------------------------------------|--------------------------------------------|
D|----------------------------------------|--------------------------------------------|
A|--------------------4444-3333-1111------|--------------------------11-11-------------|
E|-222222222-44444444----------------1111-|-22222222-4444444-1111111-------44-44-222222|

|-----|
|-----|
|--4~-|
|-----|

Chorus:
G|----------------------------------|
D|----------------------------------|
A|----------------------------------|
E|-6-4-22-5555555-2-4-66-22222222-4-|

Intro x8
            
Tabs too difficult? Try these video lessons and learn fast.


comments powered by Disqus
↑ Back to top | Tablatures and chords are parodies/interpretations of the original songs. You may use it for private study, scholarship, research or language learning purposes only